Табулатура Metallica | The Thing That Should Not Be  (2) гитара табулатуры уроки тексты песен Metallica текст lyrics песня аккорды песни ноты нота электрогитара струна  
   А Б В Г Д Е Ж З И К Л М Н О П Р С Т У Ф Х Ч Ш Ы Э Ю Я       Разные песни
1-9 A B C D E F G H I J K L M N O P Q R S T U V W Y Z      Все исполнители in english

    



группа Metallica, Табулатура песни The Thing That Should Not Be (2)

Группа: Metallica - другие аккорды (225),   о группе (32 статей),   диски (11),   фотографии (49)
Табулатура песни: The Thing That Should Not Be (2)
Просмотров: 1623
Прислал: xAL (xal@akkords.ru)




    
Lead Guitar
                                                                               
E||----------------7h10h|--7----------------|
B||---------------------|-------------------|
G||---------------------|-------------------|
D||---------------------|-------------------|
A||---------------------|-------------------|
E||---------------------|-------------------|

------------------10-10-10-10-|
----17b-----------------------|
------------------------------|
------------------------------|
------------------------------|
------------------------------|

--14h11h10-14h11h10-14h11h10-14h11h10-14h11h10-14h11h10-14h11h10-14h11h10-14h11h
--------------------------------------------------------------------------------
--------------------------------------------------------------------------------
--------------------------------------------------------------------------------
--------------------------------------------------------------------------------
--------------------------------------------------------------------------------

--10-14h11h10-14h11h10-14h11h10---------------|
--------------------------------13r-------13/-|
----------------------------------------------|
Узнай ВСЕ о своем друге в ВК или FB
----------------------------------------------| ----------------------------------------------| ----------------------------------------------| ------------9-10-9h10h9----------------------|--------------------| -------9-10-------------10-8-----------------|--------------------| --9h10-----------------------11-10-----------|--------------------| -----------------------------------12-11-8-7-|--------------------| ---------------------------------------------|--9---8-------------| ---------------------------------------------|--------------------| -----------14h11h10-14h11h10-14h11h10-14h11h10-14h11h| -----------------------------------------------------| --0--------------------------------------------------| -----------------------------------------------------| -----------------------------------------------------| -----------------------------------------------------| --10-14h11h10-14h11h10-14h12h10/------------| --------------------------------------------| ----------------------------------12--------| --------------------------------------------| --------------------------------------------| --------------------------------------------|

искать в аптеке
список лекарств






О сайтеАккордыХит-парадПоискУроки ФорумыИщу песню
ПрограммыСвежачок-сПодпискаСтатьи
Яндекс.Метрика