Табулатура Metallica | Wasting My Hate гитара табулатуры уроки тексты песен Metallica текст lyrics песня аккорды песни ноты нота электрогитара струна  
   А Б В Г Д Е Ж З И К Л М Н О П Р С Т У Ф Х Ч Ш Ы Э Ю Я       Разные песни
1-9 A B C D E F G H I J K L M N O P Q R S T U V W Y Z      Все исполнители in english

    



группа Metallica, Табулатура песни Wasting My Hate

Группа: Metallica - другие аккорды (225),   о группе (32 статей),   диски (11),   фотографии (49)
Табулатура песни: Wasting My Hate
Просмотров: 3878
Прислал: xAL (xal@akkords.ru)




    
Wasting my Hate by Metallica  Off of their Load album
Written by James Hetfield
Tabbed out by Gendefect@aol.com

I think this is one of the easiest Metallica songs I've heard.  This is the first song I've attempted to tab out, so bear with me, Although I think it's just about right. There is some harmonizing during the chorus, but I'm way too lazy to figure it out. All strings are tuned down a half step.

Intro and Chorus
The part in bold is played only during the second run through, during the intro

e----------------------------------------------------------
B----------------------------------------------------------
G----------------------------------------------------------
D----------------------------------------------------------
A---------5h7-7-7p5---5-5-----5------------------------5h7-
E-0-0-5h7-----------7-----5h7---3/5-5-0-3-5-/7-0-0-5h7-----

e----------------------------------------------------------
B----------------------------------------------------------
G----------------------------------------------------------
D----------------------------------------------------------
A-7-7-7p5---5-5-----5--------------------------------------
E---------7-----5h7---3/5-5-0-5-3b-------------------------


Riff 1
Comes right after the intro
Play 5 times

e--------
B--------
G---7-9--
D---7-9--
A-0-5-7--
E--------


Riff 2

|----------------------------------------------------------------|
|----------------------------------------------------------------|
|----------------------------------------------------------------|
|----------------------------------------------------------------|
|-----7---7-6---5--------------------------------5/7-7---5/7-7---|
Узнай ВСЕ о своем друге в ВК или FB
|--0----0-----0---0-0-7-7-7-6-0-5--5-5-5-0-5-4-0-3/5-5-0-3/5-5-0-| [ 2nd time -x-x-5- ] Verse 1 e---------------------------------------------------------- B---------------------------------------------------------- G-9-9-9-9/10-10-10-10--10-109------7-9-------------------- D-9-9-9-9/10-10-10-10--10-109------7-9-------------------- A-7-7-7-7/ 8- 8- 8- 8-- 8- 87----0-5-7-------------------- E---------------------------------------------------------- Verse 2 e---------------------------------------------------------- B---------------------------------------------------------- G-9-9-9-9/10-10-10-10--10--7-7-7-7/------------/9-9-9-9-9/10 D-9-9-9-9/10-10-10-10--10--7-7-7-7/7-7-7-7--7-7/9-9-9-9-9/10 A-7-7-7-7/ 8- 8- 8- 8-- 8--5-5-5-5/7-7-7-7--7-7/7-7-7-7-7/8 E----------------------------------5-5-5-5--5-5------------ e---------------------------------------------------------- B---------------------------------------------------------- G-10-10-10--10----7-9-------------------------------------- D-10-10-10--10----7-9-------------------------------------- A- 8- 8- 8-- 8--0-5-7-------------------------------------- E---------------------------------------------------------- Riff 3 Play 4 times e---------------------------------------------------------- B---------------------------------------------------------- G-7-9-7-9-7-7-7-9--10-10-10-10----------------------------- D-7-9-7-9-7-9-7-9--10-10-10-10----------------------------- A-5-7-5-7-5-7-5-7-- 8- 8- 8- 8----------------------------- E----------------------------------------------------------

лекарство в аптеке
список лекарств

Дома по канадской технологии цена Москва. Канадский дом проекты .

sippanel.su








О сайтеАккордыХит-парадПоискУроки ФорумыИщу песню
ПрограммыСвежачок-сПодпискаСтатьи
Яндекс.Метрика