Табулатура Metallica | Whiskey In The Jar Part 1 гитара табулатуры уроки тексты песен Metallica текст lyrics песня аккорды песни ноты нота электрогитара струна  
   А Б В Г Д Е Ж З И К Л М Н О П Р С Т У Ф Х Ч Ш Ы Э Ю Я       Разные песни
1-9 A B C D E F G H I J K L M N O P Q R S T U V W Y Z      Все исполнители in english

    



группа Metallica, Табулатура песни Whiskey In The Jar Part 1

Группа: Metallica - другие аккорды (225),   о группе (32 статей),   диски (11),   фотографии (49)
Табулатура песни: Whiskey In The Jar Part 1
Просмотров: 2227
Прислал: xAL (xal@akkords.ru)




    
Whiskey in the Jar (solo)
performed by Metallica on Garage Inc

tune all guitars down 1 full step

pre-solo:
|------------------------|--------------------|
|------------------------|--------------------|
|--7--7----7----7-9---7/-|--4--4~-------------|
|------------------------|--------------------|
|------------------------|--------------------|
|------------------------|--------------------|

------------------------|--------------------|-----------------------|
------------------------|--------------------|-----------8--8--------|
--9------9----9h11---9/-|--5--5~-------------|------9----------9h-7--|
------------------------|--------------------|-----------------------|
------------------------|--------------------|-----------------------|
------------------------|--------------------|-----------------------|

--------------------|-----------------------|---------------------|
--------------------|-----------------------|---------------------|
-------7~-----------|------7--9--7----7--9--|--7~-----------7/-4--|
--9-----------------|-----------------------|---------------------|
--------------------|-----------------------|---------------------|
--------------------|-----------------------|---------------------|

------------------------|--------------------|------------------------|
------------------------|--------------------|------------------------|
--7----7--7----7h9---7/-|--4--4~-------------|-------7h9---9----9/-5--|
------------------------|--------------------|--9---------------------|
------------------------|--------------------|------------------------|
------------------------|--------------------|------------------------|

-------------------|-----------------------|---------------------|
-------------------|-----------8--8--------|---------------------|
--5----------------|------9----------9h-7--|--7~-------------7h9h|
-------------------|-----------------------|---------------------|
-------------------|-----------------------|---------------------|
-------------------|-----------------------|---------------------|

---------------------|-------------------|--------------------|
---------------------|-------------------|--------------------|
--7~-----------7--9--|--7~---------------|--------------7/-6--|
---------------------|-------------------|--------------------|
---------------------|-------------------|--------------------|
---------------------|-------------------|--------------------|

-------------------|-------------------|----------------------|
-------------------|----------------8/-|--13~-----13~---------|
--5~---------------|-------------------|----------------------|
-------------------|-------------------|----------------------|
-------------------|-------------------|----------------------|
-------------------|-------------------|----------------------|

----------------------------|------------------------|--------------------|
----13----13----13----12h13h|--12~-------------12h13h|--12~---------------|
----------------------------|------------------------|--------------------|
----------------------------|------------------------|--------------------|
----------------------------|------------------------|--------------------|
----------------------------|------------------------|--------------------|

----------------------------|--------------------...
--8-------------------------|--------------------...
-----9--11--7--9/-12~---12~-|----12~---12~---12--...
----------------------------|--------------------...
----------------------------|--------------------...
----------------------------|--------------------...

solo:
                                                                
...--7--8--|--8--10--7h8h7-----7------------|---------7h-8--5/10-------10--|
...--------|---------------10-----10--8--7--|--8--10---------------12------|
...--------|--------------------------------|------------------------------|
...--------|--------------------------------|------------------------------|
...--------|--------------------------------|------------------------------|
...--------|--------------------------------|------------------------------|
                                                                           
--10h12~--12--10--12--------14b--|--12----10----12--10--12----------10----|
--------------------------x------|----------------------------12----------|
------------------------x--------|----------------------------------------|
---------------------------------|----------------------------------------|
---------------------------------|----------------------------------------|
---------------------------------|----------------------------------------|
                                                                
--8----7----5-------------------|--8h7-5-----------------------|
-----------------8----6----5----|--------8---6--5--------------|
--------------------------------|--------------------7----5----|
--------------------------------|------------------------------|
--------------------------------|------------------------------|
--------------------------------|------------------------------|
                                           
----------------------|--------------7--8--|
----------------------|--------------------|
Узнай ВСЕ о своем друге в ВК или FB
--4r---4r---4r---4r---|--------------------| ----------------------|--------------------| ----------------------|--------------------| ----------------------|--------------------| --10--8--7h8h7-----7------------|---------7--8--8/10-------10--| ---------------10-----10--8--7--|--8--10---------------12------| --------------------------------|------------------------------| --------------------------------|------------------------------| --------------------------------|------------------------------| --------------------------------|------------------------------| --10-12~--12--10--12--14b-----|--12----10----12--10--12--------10--| ------------------------------|----------------------------12------| ------------------------------|------------------------------------| ------------------------------|------------------------------------| ------------------------------|------------------------------------| ------------------------------|------------------------------------| --8----7----5-------------------|----------7h8----10-----12----| -----------------8----6----5----|--5h6h5-8-----5/-----5/-------| --------------------------------|------------------------------| --------------------------------|------------------------------| --------------------------------|------------------------------| --------------------------------|------------------------------| --------------------------------|----------------------------| --------------------------------|-------------------------8--| --12~---12~---12----12----12----|--12--12--12----------9-----| --12~---12~---14----12----10----|--9---10--12----------------| --------------------------------|----------------------------| --------------------------------|----------------------------| -------------------------------|------------------------| --10b---10b-10r---10h8----8h10-|--8~---8-----8----------| -----------------------9-------|----------9-----7----6--| -------------------------------|------------------------| -------------------------------|------------------------| -------------------------------|------------------------| -----------------------------|------------------------12----| -----------------------------|-----8-------10----8----------| --5~---7--5--9----7/---10----|--9-------9-------------------| -----------------------------|------------------------------| -----------------------------|------------------------------| -----------------------------|------------------------------| ----------------------------|--------------------------------| --8--8~---8--8--------------|--8-----------------------------| ------------------9----9----|--9----9----9----9/-12--12/-14--| ----------------------------|--------------------------------| ----------------------------|--------------------------------| ----------------------------|--------------------------------| ----------------------15h17h15h17h15----|--15----15-------------------| ----------------15h17----------------17-|-----------------------------| --12----12h-14--------------------------|----------------7--7--7h9h11-| ----------------------------------------|-----------------------------| ----------------------------------------|-----------------------------| ----------------------------------------|-----------------------------| --------------------------|-------------------------------| --8-----------------------|-------------------------------| -----9--11--7--9--12~-----|--12----12--12----7--7--7h9h11-| --------------------------|-------------------------------| --------------------------|-------------------------------| --------------------------|-------------------------------| ------------------------------|----------------------------| --8---------------------------|----------------------------| -----9--11--7--9/-12~-12---12r|--12------12----12--14--12--| ------------------------------|----------------------------| ------------------------------|----------------------------| ------------------------------|----------------------------| ----------------------------------|------------------------------| ----------------------------------|------------------------------| --14b---14b---14b---14r-----12h14h|--12~---12--12-------0--0h2h4-| ----------------------------------|------------------5-----------| ----------------------------------|------------------------------| ----------------------------------|------------------------------| ------------------------|-------------------|------------------| --3---------------------|-------------------|------------------| -----0--2--0--2r---2r---|--0----------------|------------------| ------------------------|-------------------|------------------| ------------------------|-------------------|------------------| ------------------------|-------------------|------------------|

найти лекарство
список лекарств






О сайтеАккордыХит-парадПоискУроки ФорумыИщу песню
ПрограммыСвежачок-сПодпискаСтатьи
Яндекс.Метрика