Табулатура Metallica | Wherever I May Roam гитара табулатуры уроки тексты песен Metallica текст lyrics песня аккорды песни ноты нота электрогитара струна  
   А Б В Г Д Е Ж З И К Л М Н О П Р С Т У Ф Х Ч Ш Ы Э Ю Я       Разные песни
1-9 A B C D E F G H I J K L M N O P Q R S T U V W Y Z      Все исполнители in english

    



группа Metallica, Табулатура песни Wherever I May Roam

Группа: Metallica - другие аккорды (225),   о группе (32 статей),   диски (11),   фотографии (49)
Табулатура песни: Wherever I May Roam
Просмотров: 2180
Прислал: xAL (xal@akkords.ru)




    
Wherever I may roam (solo)

solo
----
|--12/---------------------|------------------------------------------|
|--12/---------------------|-------9-12h9-9-12h9-9-10-9---------------|
|----------9~------9-10r---|----11b---------------------10h9-10h9-----|
|---------------10---------|--------------------------------------10--|
|--------------------------|------------------------------------------|
|--------------------------|------------------------------------------|

--12/--------------------|----------------------|
--12/--------------------|----15r-----15b-------|
----------9~-----9-9b----|----------------------|
--------------10---------|----------------------|
-------------------------|----------------------|
-------------------------|----------------------|

--17h16-17h16h13h12-17h16-16h15h13h12-17h16-17h16h13h12-17h16-17h16h13h12-|
--------------------------------------------------------------------------|
--------------------------------------------------------------------------|
--------------------------------------------------------------------------|
--------------------------------------------------------------------------|
--------------------------------------------------------------------------|

--17h16-17h16h13h12-17h16-16h15h13h12-17h16-17h16h13h12-17h16-17h16h13h12-|
--------------------------------------------------------------------------|
--------------------------------------------------------------------------|
--------------------------------------------------------------------------|
--------------------------------------------------------------------------|
--------------------------------------------------------------------------|

--------------------------------------------------|
--15---13h12-15h12-15---13h12-15h12h17h15---12-12-|
--------------------------------------------------|
--------------------------------------------------|
--------------------------------------------------|
--------------------------------------------------|

---------------------------------------------------|------------|
--15h12-17h15---12-12-15h13h12-13h12---------------|--15r-------|
-------------------------------------14-13-14r--13-|------------|
---------------------------------------------------|------------|
---------------------------------------------------|------------|
---------------------------------------------------|------------|

--------------------|--------------------------|--------------------|
--15b---------------|----------15r-------12----|--15~---------------|
--------------------|--------------------------|--------------------|
--------------------|--------------------------|--------------------|
--------------------|--------------------------|--------------------|
--------------------|--------------------------|--------------------|

--------------16--17--17--17--|----16---------------------------|
------16--17------------------|-------17h16-16~-------16--17h16/|
------------------------------|---------------------------------|
------------------------------|---------------------------------|
------------------------------|---------------------------------|
------------------------------|---------------------------------|

----------------------------|----------------------------|
--12~---------12-12-12--12--|--12/-15--15--15~-----------|
--------------12-12-12--12--|--12/-15--15--15~-----------|
--------------12-12-12--12--|--12/-15--15--15~-----------|
----------------------------|----------------------------|
----------------------------|----------------------------|

------------------|--------------------------|--------------------17/---|
------------------|--15----15----12----13----|--14/---16/---18----17/---|
------------------|--15----15----12----13----|--14/---16/---18----17/---|
------------------|--------------------------|--------------------------|
------------------|--------------------------|--------------------------|
------------------|--------------------------|--------------------------|

--19------19~---------|--22r---22r---22b--------|
--19------19~---------|-------------------------|
--19------19~---------|----------------------x/-|
----------------------|----------------------x/-|
----------------------|-------------------------|
----------------------|-------------------------|

--19h16-------19-19h16-------19-19h16-16-------19-19h16-16-------16-|
--------17-17----------17-17-------------17-17-------------17-17----|
--------------------------------------------------------------------|
--------------------------------------------------------------------|
--------------------------------------------------------------------|
--------------------------------------------------------------------|

--19h16-16/13-13-13h16h13-12-12-13h12----12-------------|
--------------------------------------15----15h13-13-13-|
--------------------------------------------------------|
--------------------------------------------------------|
--------------------------------------------------------|
--------------------------------------------------------|

-------------------------|
--13h15h13~--------------|
-------------------------|
-------------------------|
-------------------------|
-------------------------|

outro solo
----------
--16--16h13h12-16h13h12-16----12-16h13h12-16h--13h12-|
-----------------------------------------------------|
-----------------------------------------------------|
-----------------------------------------------------|
-----------------------------------------------------|
-----------------------------------------------------|

--16h13h12-16-17h16h-13h12-16h13h12-16h-13h12-16--17h16-17h16h13h12h|
--------------------------------------------------------------------|
--------------------------------------------------------------------|
--------------------------------------------------------------------|
--------------------------------------------------------------------|
--------------------------------------------------------------------|

--16h13h12-12h13-12h13h12----12-13h12----12-------------|
--------------------------15----------15----15h13----12-|
--------------------------------------------------15----|
--------------------------------------------------------|
--------------------------------------------------------|
--------------------------------------------------------|

------------------------------------|------------------------|--------------------12--|
--13h12-------12~---12--------------|--15b-----15b-----15b---|----15b-----15r---------|
--------14h13-----------14h13-14~---|------------------------|------------------------|
------------------------------------|------------------------|------------------------|
------------------------------------|------------------------|------------------------|
------------------------------------|------------------------|------------------------|

--17h16-17h16h13h12-16h-13h12-17h16-17h16h13h12-16h-13h12-|
----------------------------------------------------------|
----------------------------------------------------------|
----------------------------------------------------------|
----------------------------------------------------------|
----------------------------------------------------------|

--17h16-17h16h13h12-16h-13h12-16h13h12-12--12--------|
-----------------------------------------------13h12-|
-----------------------------------------------------|
-----------------------------------------------------|
-----------------------------------------------------|
-----------------------------------------------------|

Узнай ВСЕ о своем друге в ВК или FB
----------------------------------------------| --13h12--------------12-13h12--------------12-| --------14h13-14--14----------14h13-14--14----| ----------------------------------------------| ----------------------------------------------| ----------------------------------------------| ----------------------------------------------| --13h12--------------12-13h12--------------12-| --------14h13-14--14----------14h13-14--14----| ----------------------------------------------| ----------------------------------------------| ----------------------------------------------| --------------------------------------------------| --13h12----13h12----12-13-13h12----12----------12-| --------14-------14-------------14----14h13-14----| --------------------------------------------------| --------------------------------------------------| --------------------------------------------------| --------------------------| --15b---15b---15b---15b---| --------------------------| --------------------------| --------------------------| --------------------------| --16-16-16-16-16-16-16-16-16-16-16-16-17-17-17-17-17-17-17-17-17-17-17-17-| --------------------------------------------------------------------------| --------------------------------------------------------------------------| --------------------------------------------------------------------------| --------------------------------------------------------------------------| --------------------------------------------------------------------------| --19-19-19-19-19-19-19-19-19-19-19-19-22-22-22-22-22-22-22-22-22-22-22-17-| --------------------------------------------------------------------------| --------------------------------------------------------------------------| --------------------------------------------------------------------------| --------------------------------------------------------------------------| --------------------------------------------------------------------------| --22b---22b---22b---22b---|--22b---22b-----------| --------------------------|----------------------| --------------------------|----------------------| --------------------------|----------------------| --------------------------|----------------------| --------------------------|----------------------| ---------------12--------------12-----------| --9h10-12-9h10----9h10-12-9h10----9h10-12-9h| --------------------------------------------| --------------------------------------------| --------------------------------------------| --------------------------------------------| ----------12--------------12-----------------| --10-9h10----9h10-12-9h10----9h10-12--9h-10--| ---------------------------------------------| ---------------------------------------------| ---------------------------------------------| ---------------------------------------------| --12-------------------------------------|--12~---12-------12~---12-------| -----9h10-12-12h10-10--9h10-12-9h10h9----|------------9-10-----------9-10-| --------------------------------------9--|--------------------------------| -----------------------------------------|--------------------------------| -----------------------------------------|--------------------------------| -----------------------------------------|--------------------------------| --12----------------12----------------| ------9-10-12--9-10-----9-10-12--9-10-| --------------------------------------| --------------------------------------| --------------------------------------| --------------------------------------| --12-----------------10~-------12-13-| ------9-10-12--10-12-------15--------| -------------------------------------| -------------------------------------| -------------------------------------| -------------------------------------| --16--13--12------12h13h12----12-------------| --------------15-----------15----15-13-12-13-| ---------------------------------------------| ---------------------------------------------| ---------------------------------------------| ---------------------------------------------| -----------------------------------------------12--| --13h12----------13h12-------13h12----------12-----| --------14h13h14-------14h13-------14h13-14--------| ---------------------------------------------------| ---------------------------------------------------| ---------------------------------------------------| --------------------------------------| ------------------13h12---------------| --12--------12----------14h13-14--12--| ------14h12---------------------------| --------------------------------------| --------------------------------------| ------------------------------------------| --13h12---------------13h12---------------| --------14h13-14h-12--------14h13-14h-12--| ------------------------------------------| ------------------------------------------| ------------------------------------------| ------------------------------------------| --13h12-----------13--13h12-----------12--| --------14h13-14------------14h13-14------| ------------------------------------------| ------------------------------------------| ------------------------------------------| --------12-------12--------12-------12--13--| --10h13----10h13-----10h13----10h13---------| --------------------------------------------| --------------------------------------------| --------------------------------------------| --------------------------------------------| --13--12--13--12--12--13--12--12--13--12--13h-| ----------------------------------------------| ----------------------------------------------| ----------------------------------------------| ----------------------------------------------| ----------------------------------------------| --16-12-14-16-16b-16-17-19-16-20-17-21-18-22--|--22b---22b-22r-22b-------|| ----------------------------------------------|--------------------------|| ----------------------------------------------|--------------------------|| ----------------------------------------------|--------------------------|| ----------------------------------------------|--------------------------|| ----------------------------------------------|--------------------------||

поиск лекарств
список лекарств

Ремонт японских грузовиков

Продажа грузовиков и запасных частей к ним. Ремонт автомобилей

cityspectrans.ru

лагерь на черном море отзывы

banzay-kids.ru








О сайтеАккордыХит-парадПоискУроки ФорумыИщу песню
ПрограммыСвежачок-сПодпискаСтатьи
Яндекс.Метрика