Табулатура Король и Шут | Дурак и молния (интро)(2) гитара табулатуры уроки тексты песен Король и Шут текст lyrics песня аккорды песни ноты нота электрогитара струна  
   А Б В Г Д Е Ж З И К Л М Н О П Р С Т У Ф Х Ч Ш Ы Э Ю Я       Разные песни
1-9 A B C D E F G H I J K L M N O P Q R S T U V W Y Z      Все исполнители in english

    



группа Король и Шут, Табулатура песни Дурак и молния (интро)(2)

Продолжаем грести бабос на ботах в Telegram.
Только в этот раз есть вариант автоматизировать это дело, привлекая рефералов. Вы можете заработать если »

Группа: Король и Шут - другие аккорды (277),   о группе (10 статей),   диски (9),   фотографии (68)
Табулатура песни: Дурак и молния (интро)(2)
Просмотров: 2843
Подобрал: Rage (Ragier@ukr.net)




    
Вот вам вступление:
1------------------------------------------------------------------------------
2---------------------------------------------------------------------------3--
3-------------------------------4-2-----------------0--2--4---------4-------4--
4------2----4-5---------1----------------------2---------------2---------------
5---3----------------2---------------------------------------------------------
6------------------------------------------------------------------------------
1---------------------------------------
2---------------------------------------

Продолжаем грести бабос на ботах в Telegram.
Только в этот раз есть вариант автоматизировать это дело, привлекая рефералов. Вы можете заработать если »

3-------------------------------4-2----- 4------2----4-5---------1-------------2- 5---3----------------2------------------ 6--------------------------------------- Текст с аккордами не пишу т.к он всем известен..Удачи!!!

поиск лекарств
список лекарств






О сайтеАккордыХит-парадПоискУроки ФорумыИщу песню
ПрограммыСвежачок-сПодпискаСтатьи
Яндекс.Метрика