Табулатура Red Hot Chili Peppers | Soul To Squeeze  (2) гитара табулатуры уроки тексты песен Red Hot Chili Peppers текст lyrics песня аккорды песни ноты нота электрогитара струна  
   А Б В Г Д Е Ж З И К Л М Н О П Р С Т У Ф Х Ч Ш Ы Э Ю Я       Разные песни
1-9 A B C D E F G H I J K L M N O P Q R S T U V W Y Z      Все исполнители in english

    



группа Red Hot Chili Peppers, Табулатура песни Soul To Squeeze (2)

Продолжаем грести бабос на ботах в Telegram.
Только в этот раз есть вариант автоматизировать это дело, привлекая рефералов. Вы можете заработать если »

Группа: Red Hot Chili Peppers - другие аккорды (395),   о группе (3 статей),   диски (15),   фотографии (113)
Табулатура песни: Soul To Squeeze (2)
Просмотров: 1737
Прислал: Back Door Man (akkords@akkords.ru)




    
Intro:
e:----------------------------------|
B:----------------------------------|
G:------2-----4b54p2-------------2--|
D:---2----------------------2h4-----|
A:0--------0----------0--0----------|
E:----------------------------------|
            
e:-----------------------------------------|
B:------------------------------5----------|
G:-------2-----------2-----4/6-----64--2--|
D:----2--------2---------------------------|
A:-0--------0-----0-----0------------------|
E:-----------------------------------------|
                                        
e:-----------------------------------|--------------------------------|
B:-----------------------------------|--------------------------------|
G:--------2-----4b5p2-------------2--|--------2-----------------------|
D:-----2---------------------2h4-----|-----2--------2-----2-----0-----|
A:--0--------0---------0--0----------|--0--------0-----0--------------|
E:-----------------------------------|-----------------------3-----3--|
                                        
e:-----------------------------------|
B:-----------------------------------|
G:--------2-----4b5p2-------------2--|
D:-----2---------------------2h4-----|
A:--0--------0---------0--0----------|
E:-----------------------------------|
                                        

e:----------------------------------------|
B:-------------------------------5--------|
G:--------2-----------------4/6-----6p4p2-|
D:-----2--------2-----2-------------------|
A:--0--------0-----0-----0----------------|
E:----------------------------------------|
                                                                             

e:----------------------------------|
B:----------------------------------|
G:--------2-----4b5p2-------------2-|
D:-----2---------------------2h4----|
A:--0--------0---------0--0---------|
E:----------------------------------|
                                        
Ok, now play these notes with a slide, over this progression:
F C Dm Dm F C Gm7 F C Dm Dm F C Gm7

e:---------------------------|--------------------------------|
B:---8/10------8/10----------|---13/15------1513-------------|
G:---------------------------|----------------------------14--|
D:---------------------------|--------------------------------|
A:---------------------------|--------------------------------|
E:---------------------------|--------------------------------|

e:-----------------|----------------|--------------|-----------------|
B:-------13--------|----------------|-----------13-|-----------13/15-|
G:-----------14----|-10-------------|--12/14-------|--14-------------|
D:-----------------|----------------|--------------|-----------------|
A:-----------------|----------------|--------------|-----------------|
E:-----------------|----------------|--------------|-----------------|

e:-------------------------|-----------------|
B:--------13/15---------13-|-----------------|
G:-------------------------|--------------14-|
D:-------------------------|-----------------|
A:-------------------------|-----------------|
E:-------------------------|-----------------|
Verse 1 is just the chord progression repeated again.
F           C          Dm        Dm          F            C       Gm
I've got a bad disease.          All from my brain is where I bleed. 
F      C        Dm               Dm          F        C    Gm
Insanity it seems,               has got me by my soul to squeeze.
Verse 2, played with the same progression and these notes:
e:------------8/108---------|------------------|
B:---------------|-----------|--------------10--|
G:---------------|-----------|------------------|
D:---------------|-----------|------------------|
A:---------------|-----------|------------------|
E:---------------|-----------|------------------|

e:------------------|--------------|
B:--------13---10/1110----6-------|
G:------------------|--------------|
D:------------------|--------------|
A:------------------|--------------|
E:------------------|--------------|

Chorus:
  F             C             Dm9                        Bb#11

Продолжаем грести бабос на ботах в Telegram.
Только в этот раз есть вариант автоматизировать это дело, привлекая рефералов. Вы можете заработать если »

Where I go, I just don't know. I got to, got to, gotta take it slow. F C Dm9 A Bb When I find my peace of mind, I'm gonna give you some of my good time. Play Verse 3, then the Chorus again. Solo (with the rhythm progression): e:-------------------|----|-----------8--------|------------------| B:-108--6--8/10--6~-|----|-/10-10-10----108--|-----6---------6--| G:-------------------|----|--------------------|--------/7--------| D:-------------------|----|--------------------|------------------| A:-------------------|----|--------------------|------------------| E:-------------------|----|--------------------|------------------| e:----------------------|--------|--------------/108----------|------------| B:-/10--8--6--8--10-6/8-|-6-----|-/10--10--10----------10--10-|-8-6-5---| G:----------------------|-----7--|-----------------------------|------------| D:----------------------|--------|-----------------------------|------------| A:----------------------|--------|-----------------------------|------------| E:----------------------|--------|-----------------------------|------------| e:--/10------|----108----5----|---/108---------|--(8)--|---------------| B:-----------|-----------------|-----------------|-------|-------13/15--| G:-----------|-----------------|-----------------|-------|---------------| D:-----------|-----------------|-----------------|-------|---------------| A:-----------|-----------------|-----------------|-------|---------------| E:-----------|-----------------|-----------------|-------|---------------| e:----------------------| B:-13-----1510---105--| G:----------------------| D:----------------------| A:----------------------| E:----------------------| Verse 4 Bridge (with rhythm progression, vary and add bass notes here and there): e:---------13/15-|----------13-|------------------------|------------------| B:---------------|-------------|--15-------13/15--------|----10/11---------| G:---------------|-------------|------------------1514-|-------------12---| D:---------------|-------------|------------------------|------------------| A:---------------|-------------|------------------------|------------------| E:---------------|-------------|------------------------|------------------| e:----------------|--------------------------|---------|-------| B:----------------|---------/10--------------|---------|-------| G:--10------------|-----------------------10-|---(10)--|-------| D:----------------|--------------------------|---------|-------| A:----------------|--------------------------|---------|-------| E:----------------|--------------------------|---------|-------| Ending Chorus (again with rhythm): e:--------------|---------------|------------|-------------------| B:--/10---------|---------86---|-6----------|--------------6/7-| G:--------------|---------------|------------|--5/7--------------| D:--------------|---------------|------------|-------------------| A:--------------|---------------|------------|-------------------| E:--------------|---------------|------------|-------------------| e:--------------------|---------------|-------------------------| B:-6-----------11/13-|--1110--------|--1110---------10/15----| G:--------------------|---------------|-------------------------| D:--------------------|---------------|-------------------------| A:--------------------|---------------|-------------------------| E:--------------------|---------------|-------------------------| e:------------------|------------------|--------------|---------------------| B:--15------15------|----------13------|-/10----------|----------10---------| G:------------------|--/14---------14--|----------10--|---9/10--------10----| D:------------------|------------------|--------------|---------------------| A:------------------|------------------|--------------|---------------------| E:------------------|------------------|--------------|---------------------| e:-------------------|-------------------|---------| B:----------8--6----|--------10---------|---------| G:--9/10-------------|--9/10-------10----|--(10)---| D:-------------------|-------------------|---------| A:-------------------|-------------------|---------| E:-------------------|-------------------|---------|

найти лекарство
список лекарств






О сайтеАккордыХит-парадПоискУроки ФорумыИщу песню
ПрограммыСвежачок-сПодпискаСтатьи
Яндекс.Метрика