Басовая табулатура Red Hot Chili Peppers | Soul To Squeeze гитара табулатуры уроки тексты песен Red Hot Chili Peppers текст lyrics песня аккорды песни ноты нота электрогитара струна  
   А Б В Г Д Е Ж З И К Л М Н О П Р С Т У Ф Х Ч Ш Ы Э Ю Я       Разные песни
1-9 A B C D E F G H I J K L M N O P Q R S T U V W Y Z      Все исполнители in english

    



группа Red Hot Chili Peppers, Басовая табулатура песни Soul To Squeeze

Продолжаем грести бабос на ботах в Telegram.
Только в этот раз есть вариант автоматизировать это дело, привлекая рефералов. Вы можете заработать если »

Группа: Red Hot Chili Peppers - другие аккорды (395),   о группе (3 статей),   диски (15),   фотографии (113)
Басовая табулатура песни: Soul To Squeeze
Просмотров: 1843
Прислал: Back Door Man (akkords@akkords.ru)




    
Intro
G|-12-----12--12-14-12-----------------------------
D|---12-14--14---------7-7-7-7-7-7-7-7-7-7-7-7-7---
A|-------------------------------------------------
E|-------------------------------------------------
Verse
G|-------------------------------------------------
D|---------------0-2-3---------3-3-----------------
A|--------3-3-2-3-----1-5-5-0-5-1-3----------------
E|-1-1-3-5-------------------------3-5-6-8-6-5-----
Vibration (to the verse)
G|---------------------3-3-3------------------------------
D|---------------0-2-3-------------3-3-5-3-----3-0--------
A|--------3-3-2-3-----1-----5-5-0-5-1-3---5-3-5---3-0-----
E|-1-1-3-5---------------------------------6--------------
***Chorus***
G|--------------------------------------------------
D|--7-8-10-7-5---------------------7-9-10-7-7-[8-7-5]
A|-8--------8-5-5-5-7-8-----10-9--8-----------------
E|--------8------------6-5-8--8----------8----------
G|-------------------------------------------
D|-[8-7-5]----------------7------------------
A|-------8-7-5-5-5-5-5-5-8-------------------
E|-------------------------6-8-5-6-3---------
***Chorus 2***
G|----------------------------------------------------
D|--7-8-10-7-5-------7----------------7-8-10-10-[8-7-5]
A|-8--------8-5-5-5/8----------10-9--8------8---------
E|--------8-----------6-5-3-5-8--8--------------------
g|-------------------------------------
d|-[8-7-5]-------------7----------------
a|-------5-5-5-5-5-5/8-----------------
e|---------------------6-8-6-5-3-------
Guitar Solo
G|---------------------3-3-3----------------------------------
D|---------------0-2-3---------------3-3----------------------

Продолжаем грести бабос на ботах в Telegram.
Только в этот раз есть вариант автоматизировать это дело, привлекая рефералов. Вы можете заработать если »

A|--------3-3-2-3-----1-------5-5-0-5-1-3-(5)----------------- E|-1-1-3-5-----------------------------------3-6-5--[1-1-3-5]- g|-------------------------------------------------- d|----------------0-2-3----------------------------- a|---------3-3-2-3-----1---------3-3---------------- e|-(1-1-3-5)--------------5-5-0-5-1-3-3-3-3-3-3-3-3- Bridge G|--7----12----5-----5------7----12----5-----5--- D|---/10-10-5-7-7-5-7-7------/10-10-5-7-7-5-7-7-- A|-5-------------------3--5--------------------3- E|----------------------------------------------- ****Last Chorus**** G|------------------------------------------------------[/12-10] D|--7-8-10-7-7-8-7-5-5-------7----------------7-8-10-(10)------- A|-8----------------8-5-5-5/8----------10-9--8------------------ E|--------8-------------------6-5-3-5-8--8---------------------- g|-[/12-10]----------5------ d|--------5-0-3-5-7-8-8-7-5- a|-------------------------- e|-------------------------- G|------------------------------/12-10---------5-7-5-3-5-3-[2-3-2]- D|------10----------------7-8-10------5-0-3-5-7-------------------- A|-5-5/8-------------7--8------------------------------------------ E|--------6-5-3-5-5-8---------------------------------------------- g|-[2-3-2]------10----- d|-------5-5-5/8------- a|--------------------- e|---------------6-5-3- G|---------------12-10--5-7-5-3-5-3-2-3-2------------------------- D|---------7-8-10-----5------------------------------------------- A|--10-9--8------------3-----------------5-5-5-5-5-5-7-8---------- E|-8--8-------------------------------------------------6-8-5-3-1- / = slide []= where to start from previous line

искать в аптеке
список лекарств






О сайтеАккордыХит-парадПоискУроки ФорумыИщу песню
ПрограммыСвежачок-сПодпискаСтатьи
Яндекс.Метрика