Аккорды H.I.M. | Stigmata Diaboli гитара табулатуры уроки тексты песен H.I.M. текст lyrics песня аккорды песни ноты нота электрогитара струна  
   А Б В Г Д Е Ж З И К Л М Н О П Р С Т У Ф Х Ч Ш Ы Э Ю Я       Разные песни
1-9 A B C D E F G H I J K L M N O P Q R S T U V W Y Z      Все исполнители in english

    



группа H.I.M., Аккорды песни Stigmata Diaboli

Группа: H.I.M. - другие аккорды (273),   о группе (2 статей),   диски (5),   фотографии (82)
Аккорды песни: Stigmata Diaboli
Просмотров: 1827
Подобрал: antto.ahonnen (antto.hermanni-ahonen@jippii.fi)




    
H.I.M. "Stigmata Diaboli"
"H.I.M." / "Razorblade Romance - Sigillum Diaboli"
------------------------------------------------------------------------------
This song was trascribted by -L.H- (lassi.huotari@sci.fi)
Enjoy it!
------------------------------------------------------------------------------
INTRO:
Guitar 1
e-----------------------------------------------------------------------------
b-----------------------------------------------------------------------------
g---------8-9-9-----------8-9-6-8-9---------8-9-9-----------8-9-6-4-2---------
D-2-2-2-2-8-9-9---2-2-2-2-8-9-6-8-9-2-2-2-2-8-9-9---2-2-2-2-8-9-6-4-2---------
A-2-2-2-2-6/7-7---2-2-2-2-6/7-4-6-7-2-2-2-2-6/7-7---2-2-2-2-6/7-4-2-0---------
E-0-0-0-0---------0-0-0-0-----------0-0-0-0---------0-0-0-0-------------------
PM-------|       |-------|         |-------|       |-------|
Guitar 2
e-----------------------------------------------------------------------------
b---------9---------------9-----------------9---------------9-----------------
g-----------8-9-------------8-6-8-9-----------8-9-------------8-6-8-9---------
D-----------------------------------------------------------------------------
A-7-7-7-7---------7-7-7-7-----------7-7-7-7---------7-7-7-7-------------------
E-----------------------------------------------------------------------------

Продолжаем грести бабос на ботах в Telegram.
Только в этот раз есть вариант автоматизировать это дело, привлекая рефералов. Вы можете заработать если »

PM-------| |-------| |-------| |-------| A-6-6-6-6-6-6-6-6-6-6-6-6-6-6-6-6-6-6-6-6-6-6-6-6-4-4-4-4-4-4-4-4------------- E-4-4-4-4-4-4-4-4-4-4-4-4-4-4-4-4-7-7-7-7-7-7-7-7-2-2-2-2-2-2-2-2------------- PM |-------------------------------------------------------------| CH: e---------------------------------- b---------------------------------- g-----------------8-8-8-8-4-4------ D-6-6-6-6-6-6-6-6-8-8-8-8-4-4-4-4-- A-6-6-6-6-6-6-6-6-6-6-6-6-2-2-4-4-- E-4-4-4-4-4-4-4-4-------------2-2-- e---------------------------------- b---------------------------------- g---------------------------------- D-----4p2-----4p2-----4p2-----4p2-- A-4-4-----4-4-----4-4-----4-4------ E---------------------------------- PM---| |---| |---| |---|








О сайтеАккордыХит-парадПоискУроки ФорумыИщу песню
ПрограммыСвежачок-сПодпискаСтатьи
Яндекс.Метрика