Аккорды Чайф | Соня Любит Петю гитара табулатуры уроки тексты песен Чайф текст lyrics песня аккорды песни ноты нота электрогитара струна  
   А Б В Г Д Е Ж З И К Л М Н О П Р С Т У Ф Х Ч Ш Ы Э Ю Я       Разные песни
1-9 A B C D E F G H I J K L M N O P Q R S T U V W Y Z      Все исполнители in english

    



группа Чайф, Аккорды песни Соня Любит Петю

Работа в Европе для граждан РФ, Украины, СНГ

  • минимальная зарплата $500.
  • виза и контракт на полгода, возможно продление
  • проживание оплачивает работодатель
  • нужен только загранпаспорт
  • оформление 190 €
  • данное предложение - отличная возможность эмигрировать в Европу и закрепиться здесь навсегда.

  • Мы свяжемся с Вами по WhatsApp или Viber и ответим на любые вопросы.
    на нашем сайте можно почитать подробнее »

    Группа: Чайф - другие аккорды (161),   о группе (2 статей),   диски (19),   фотографии (10)
    Аккорды песни: Соня Любит Петю
    Просмотров: 1685
    Подобрал: mks (mkskarch@mail.ru)




        
    Соня любит Петю.
       C (тот самый брынь)  F               G   C   Am   Am7             F
    E .-----0-----------------------1-----|---------0-----------------------1--
    B .----1----------------1---1--1-1-1--|-0---1-----1--------1---1-----1----1
    G .---0-------------------2---2---2---|---0---0----2-0.-0---0----------2---
    D .--2------------------3-------------|---------2------2-2---2-------3-----
    A .-3---------------------------------|-----3--------0---------------------
    E ------------------------------------|-3----------------------------------
          Она приносит чистоту           в ве-дре  во.--ды    субботний день cе  
       G             C            A7     A7+3      F              G  C  G*
    E --------3------------------------------0-------------1----------------0--
    B .0----------0.-1------1-1---2.-2--2/3----3.--1.--1.-1-1-1---0.-1.-3----3-
    G -----0------------0----0------0-0---------0----2---2---2-----0.-0.-0-----
    D ---------------------------------------------3---------------------------
    A ---------------3------------0----------------------------------3---------
    E .3----------------------------------------------------------3-----3------
     стра уш-ла ска-эав ей вытри пыль      Твой   дом           ждет у-бор-киии
    Второй куплет играется так же, только вместо брыня в начале идет перебор 
    какой-нибудь подходящий ( я его то так, то сяк играю, поэтому написать точно не могу)
    Припев:
       С        G7       F           G
    E ----0--------3-----------1------------3---
    B .1---1----3---3----1------1----0--------0-
    G ---0.-0-----0.-0------2.---2-------0------
    D -------------------3----------------------
    A .3----------------------------------------
    E ----------3--------------------3----------
      Соня,    Соня,     Соня любит только Петю. 
    То же самое с ?...Петя, Петя, Петя лучше всех на свете...?.
    То же самое с ?...Соня, Соня, Соня любит только Петю...?.
    А потом:
       С        G*       
    E ----0-----------0------
    B .1---1----3-------3.-1-
    G ---0.-0-----0.---------
    D -----------------------
    A .3-------------------3-
    E ----------3------------
      Петя,    Петя   м-м.-м...
    
    Узнай ВСЕ о своем друге в ВК или FB
    Третий куплет: C (тот самый брынь) F G C Am Am7 F E .-----0-----------------------1-----|---------0-----------------------1-- B .----1----------------1---1--1-1-1--|-0---1-----1--------1---1-----1----1 G .---0-------------------2---2---2---|---0---0----2-0.-0---0----------2--- D .--2------------------3-------------|---------2------2-2---2-------3----- A .-3---------------------------------|-----3--------0--------------------- E ------------------------------------|-3---------------------------------- Дин дон проснется телефон Тру- ба зо- вет Возми ведро G C E --------3----------0--------3-----------1------------3--- B .0----------0.-1----1----3---3----1------1----0--------0- G -----0------------0.-0-----0.-0------2.---2-------0------ D ----------------------------------3---------------------- A ---------------3----------------------------------------- E .3-----------------------3--------------------3---------- И вы- мой... Соня, Соня, Соня любит только Петю...... То есть идет снова припев. Потом, в самом конце песни : С G* C брынь E ----0-----------0-------|-----0-------0- B .1---1----3-------3.-1--|-0/1.-1-----1-- G ---0.-0-----0.----------|-------0---0--- D ------------------------|----------2---- A .3-------------------3--|---------3----- E ----------3-------------|--------------- Петя, Петя м-м.-м... Табулатуры используемых аккордов: C F G G7 G* Am A7 A7+3 Am7 E 0 1 3 3 0 0 0 0 0 B 1 1 0 3 3 1 2 3 1 G 0 2 0 0 0 2 0 0 0 D 0 3 0 0 0 2 2 2 2 A 3 3 2 2 2 0 0 0 0 E 0 1 3 3 3 0 0 0 0 побольше экспериментируй и импровизируй и тогда все зазвучит как надо !!!!

    поиск лекарств
    список лекарств






    О сайтеАккордыХит-парадПоискУроки ФорумыИщу песню
    ПрограммыСвежачок-сПодпискаСтатьи
    Яндекс.Метрика