Басовая табулатура Radiohead | Lurgee гитара табулатуры уроки тексты песен Radiohead текст lyrics песня аккорды песни ноты нота электрогитара струна  
   А Б В Г Д Е Ж З И К Л М Н О П Р С Т У Ф Х Ч Ш Ы Э Ю Я       Разные песни
1-9 A B C D E F G H I J K L M N O P Q R S T U V W Y Z      Все исполнители in english

    



группа Radiohead, Басовая табулатура песни Lurgee

Продолжаем грести бабос на ботах в Telegram.
Только в этот раз есть вариант автоматизировать это дело, привлекая рефералов. Вы можете заработать если »

Группа: Radiohead - другие аккорды (189),   о группе (6 статей),   диски (9),   фотографии (134)
Басовая табулатура песни: Lurgee
Просмотров: 1238
Прислал: Whipper (indiespace@narod.ru)




    
G||----------------------|----------------------|----------------------|
D||----------------------|----------------------|----------------------|
A||--3------3--3------3--|--3--0----------------|--3------3--3------3--|
E||----------------------|--------3--1----------|----------------------|

                                                                     
----------------------|----------------------|----------------------|
----------------------|----------------------|----------------------|
--3--0----------------|--3------3--3------3--|--3--0----------------|
--------3--1----------|----------------------|--------3--1----------|

                                                                     
----------------------|----------------------|----------------------|
----------------------|----------------------|----------------------|
--3------3--3------3--|--3--0----------------|--3------3--3------3--|
----------------------|--------3--1----------|----------------------|

                                                                         
------------------------|----------------------|------------------------|
------------------------|----------------------|------------------------|
--3------3--3/-8--8--8--|--3------3--3------3--|--3------3--3/-8--8--8--|
------------------------|----------------------|------------------------|

                                                                       
----------------------|------------------------|----------------------|
----------------------|------------------------|----------------------|
--3------3--3------3--|--3------3--3/-8--8--8--|--3------3--3------3--|
----------------------|------------------------|----------------------|

                                                                         
------------------------|----------------------|------------------------|
------------------------|----------------------|------------------------|
--3------3--3--0--------|--0------0--0------0--|--0------0--0h-8--8--8--|
------------------3--0--|----------------------|------------------------|

                                                                       
----------------------|------------------------|----------------------|
----------------------|------------------------|----------------------|
--0------0--0------0--|--0------0--0h-8--8--8--|----------------------|
----------------------|------------------------|--1------0--1------0--|

                                                                         
----------------------|----------------------|--------------------------|
----------------------|----------------------|--------------------------|
----------------------|----------------------|-----------------0--3--0--|
--1------0--1------0--|--1------0--1------0--|--1--1--1--0--1-----------|

                                                                       
----------------------|------------------------|----------------------|
----------------------|------------------------|----------------------|
--3------3--3------3--|--3------3--3/-8--8--8--|--3------3--3------3--|
----------------------|------------------------|----------------------|

                                                                         
------------------------|----------------------|------------------------|
------------------------|----------------------|------------------------|
--3------3--3/-8--8--8--|--3------3--3------3--|--3------3--3/-8--8--8--|
------------------------|----------------------|------------------------|

                                                                       
----------------------|------------------------|----------------------|
----------------------|------------------------|----------------------|
--3------3--3------3--|--3------3--3/-8--8--8--|--3------3--3------3--|
----------------------|------------------------|----------------------|

                                                                         
------------------------|----------------------|------------------------|
------------------------|----------------------|------------------------|
--3------3--3/-8--8--8--|--3------3--3------3--|--3------3--3--0--------|
------------------------|----------------------|------------------3--0--|

                                                                       
----------------------|------------------------|----------------------|
----------------------|------------------------|----------------------|
--0------0--0------0--|--0------0--0h-8--8--8--|--0------0--0------0--|
----------------------|------------------------|----------------------|

                                                                       
------------------------|----------------------|----------------------|

Продолжаем грести бабос на ботах в Telegram.
Только в этот раз есть вариант автоматизировать это дело, привлекая рефералов. Вы можете заработать если »

------------------------|----------------------|----------------------| --0------0--0h-8--8--8--|----------------------|----------------------| ------------------------|--1------0--1------0--|--1------0--1------0--| ----------------------|--------------------------|----------------------| ----------------------|--------------------------|----------------------| ----------------------|-----------------0--3--0--|--3------3--3------3--| --1------0--1------0--|--1--1--1--0--1-----------|----------------------| ------------------------|----------------------|------------------------| ------------------------|----------------------|------------------------| --3------3--3/-8--8--8--|--3------3--3------3--|--3------3--3/-8--8--8--| ------------------------|----------------------|------------------------| ----------------------|------------------------|----------------------| ----------------------|------------------------|----------------------| --3------3--3------3--|--3------3--3/-8--8--8--|--3------3--3------3--| ----------------------|------------------------|----------------------| ------------------------|----------------------|------------------------| ------------------------|----------------------|------------------------| --3------3--3--0--------|--0------0--0------0--|--0------0--0h-8--8--8--| ------------------3--0--|----------------------|------------------------| ----------------------|------------------------|----------------------| ----------------------|------------------------|----------------------| --0------0--0------0--|--0------0--0h-8--8--8--|----------------------| ----------------------|------------------------|--1------0--1------0--| ----------------------|----------------------|--------------------------| ----------------------|----------------------|--------------------------| ----------------------|----------------------|-----------------0--3--0--| --1------0--1------0--|--1------0--1------0--|--1--1--1--0--1-----------| ----------------------|------------------------|----------------------| ----------------------|------------------------|----------------------| --3------3--3------3--|--3------3--3/-8--8--8--|--3------3--3------3--| ----------------------|------------------------|----------------------| ------------------------|----------------------|------------------------| ------------------------|----------------------|------------------------| --3------3--3/-8--8--8--|--3------3--3------3--|--3------3--3/-8--8--8--| ------------------------|----------------------|------------------------| ----------------------|------------------------|----------------------| ----------------------|------------------------|----------------------| --3------3--3------3--|--3------3--3--0--------|--0------0--0------0--| ----------------------|------------------3--0--|----------------------| ------------------------|----------------------|------------------------| ------------------------|----------------------|------------------------| --0------0--0h-8--8--8--|--0------0--0------0--|--0------0--0h-8--8--8--| ------------------------|----------------------|------------------------| ----------------------|----------------------|----------------------| ----------------------|----------------------|----------------------| ----------------------|----------------------|----------------------| --1------0--1------0--|--1------0--1------0--|--1------0--1------0--| --------------------------|-------------------|------------------|| --------------------------|-------------------|------------------|| -----------------0--3--0--|--3----------------|------------------|| --1--1--1--0--1-----------|-------------------|------------------||

поиск лекарств
список лекарств






О сайтеАккордыХит-парадПоискУроки ФорумыИщу песню
ПрограммыСвежачок-сПодпискаСтатьи
Яндекс.Метрика