Басовая табулатура Radiohead | You гитара табулатуры уроки тексты песен Radiohead текст lyrics песня аккорды песни ноты нота электрогитара струна  
   А Б В Г Д Е Ж З И К Л М Н О П Р С Т У Ф Х Ч Ш Ы Э Ю Я       Разные песни
1-9 A B C D E F G H I J K L M N O P Q R S T U V W Y Z      Все исполнители in english

    



группа Radiohead, Басовая табулатура песни You

Работа в Европе для граждан РФ, Украины, СНГ

  • минимальная зарплата $500.
  • виза и контракт на полгода, возможно продление
  • проживание оплачивает работодатель
  • нужен только загранпаспорт
  • оформление 190 €
  • данное предложение - отличная возможность эмигрировать в Европу и закрепиться здесь навсегда.

  • Мы свяжемся с Вами по WhatsApp или Viber и ответим на любые вопросы.
    на нашем сайте можно почитать подробнее »

    Группа: Radiohead - другие аккорды (189),   о группе (6 статей),   диски (9),   фотографии (134)
    Басовая табулатура песни: You
    Просмотров: 986
    Прислал: Whipper (indiespace@narod.ru)




        
                                                          
    ----------|-----------------|----------------|-----------------|
    ----------|-----------------|----------------|-----------------|
    ----------|-----------------|----------------|-----------------|
    ----------|--0------0----0--|--0--------0----|--0------0----0--|
    
                                                                          
    ----------------|-----------------|----------------|-----------------|
    ----------------|-----------------|----------------|-----------------|
    ----------------|--3------3----3--|--3--------3----|-----------------|
    --0--------0----|-----------------|----------------|--3------3----3--|
    
                                                                      
    ------------|-----------------|----------------|-----------------|
    --0----0----|-----------------|----------------|-----------------|
    ------------|-----------------|----------------|-----------------|
    ------------|--0------0----0--|--0--------0----|--0------0----0--|
    
                                                                          
    ----------------|-----------------|----------------|-----------------|
    ----------------|-----------------|----------------|-----------------|
    ----------------|--3------3----3--|--3--------3----|-----------------|
    --0--------0----|-----------------|----------------|--3------3----3--|
    
                                                                      
    ------------|-----------------|----------------|-----------------|
    --0----0----|-----------------|----------------|-----------------|
    ------------|-----------------|----------------|-----------------|
    ------------|--0------0----0--|--0--------0----|--0------0----0--|
    
                                                                          
    ----------------|-----------------|----------------|-----------------|
    ----------------|-----------------|----------------|-----------------|
    ----------------|--3------3----3--|--3--------3----|-----------------|
    --0--------0----|-----------------|----------------|--3------3----3--|
    
                                                                      
    ------------|-----------------|----------------|-----------------|
    --0----0----|-----------------|----------------|-----------------|
    ------------|-----------------|----------------|-----------------|
    ------------|--0------0----0--|--0--------0----|--0------0----0--|
    
                                                                          
    ----------------|-----------------|----------------|-----------------|
    ----------------|-----------------|----------------|-----------------|
    ----------------|--3------3----3--|--3--------3----|-----------------|
    --0--------0----|-----------------|----------------|--3------3----3--|
    
                                                                       
    ------------|-----------------|-----------------|-----------------|
    --0----0----|-----------------|-----------------|-----------------|
    ------------|--4----4----4----|--4----4----4----|--3----3----3----|
    ------------|-----------------|-----------------|-----------------|
    
                                                                           
    -----------------|-----------------|----------------|-----------------|
    -----------------|--2------2----2--|--2--------2----|-----------------|
    --3----3----3----|-----------------|----------------|-----------------|
    -----------------|-----------------|----------------|--0------0----0--|
    
                                                                           
    ----------------|-----------------|-----------------|-----------------|
    ----------------|-----------------|-----------------|-----------------|
    ----------------|--4----4----4----|--4----4----4----|--3----3----3----|
    --0--------0----|-----------------|-----------------|-----------------|
    
                                                                           
    -----------------|-----------------|----------------|-----------------|
    -----------------|-----------------|----------------|-----------------|
    --3----3----3----|-----------------|----------------|-----------------|
    -----------------|--0------0----0--|--0--------0----|--0------0----0--|
    
                                                                          
    ----------------|-----------------|----------------|-----------------|
    ----------------|-----------------|----------------|-----------------|
    ----------------|--3------3----3--|--3--------3----|-----------------|
    --0--------0----|-----------------|----------------|--3------3----3--|
    
                                                                      
    ------------|-----------------|----------------|-----------------|
    --0----0----|-----------------|----------------|-----------------|
    ------------|-----------------|----------------|-----------------|
    ------------|--0------0----0--|--0--------0----|--0------0----0--|
    
                                                                          
    ----------------|-----------------|----------------|-----------------|
    ----------------|-----------------|----------------|-----------------|
    ----------------|--3------3----3--|--3--------3----|-----------------|
    --0--------0----|-----------------|----------------|--3------3----3--|
    
                                                                      
    ------------|-----------------|----------------|-----------------|
    --0----0----|-----------------|----------------|-----------------|
    ------------|-----------------|----------------|-----------------|
    ------------|--0------0----0--|--0--------0----|--0------0----0--|
    
                                                                          
    ----------------|-----------------|----------------|-----------------|
    ----------------|-----------------|----------------|-----------------|
    ----------------|--3------3----3--|--3--------3----|-----------------|
    --0--------0----|-----------------|----------------|--3------3----3--|
    
                                                                      
    ------------|-----------------|----------------|-----------------|
    --0----0----|-----------------|----------------|-----------------|
    ------------|-----------------|----------------|-----------------|
    ------------|--0------0----0--|--0--------0----|--0------0----0--|
    
                                                                          
    ----------------|-----------------|----------------|-----------------|
    ----------------|-----------------|----------------|-----------------|
    ----------------|--3------3----3--|--3--------3----|-----------------|
    --0--------0----|-----------------|----------------|--3------3----3--|
    
                                                                      
    ------------|-----------------|----------------|-----------------|
    --0----0----|-----------------|----------------|-----------------|
    ------------|-----------------|----------------|-----------------|
    ------------|--0------0----0--|--0--------0----|--0------0----0--|
    
                                                                          
    ----------------|-----------------|----------------|-----------------|
    ----------------|-----------------|----------------|-----------------|
    ----------------|--3------3----3--|--3--------3----|-----------------|
    --0--------0----|-----------------|----------------|--3------3----3--|
    
                                                                      
    ------------|-----------------|----------------|-----------------|
    --0----0----|-----------------|----------------|-----------------|
    ------------|-----------------|----------------|-----------------|
    ------------|--0------0----0--|--0--------0----|--0------0----0--|
    
                                                                          
    ----------------|-----------------|----------------|-----------------|
    ----------------|-----------------|----------------|-----------------|
    ----------------|--3------3----3--|--3--------3----|-----------------|
    --0--------0----|-----------------|----------------|--3------3----3--|
    
                                                                      
    ------------|-----------------|----------------|-----------------|
    --0----0----|-----------------|----------------|-----------------|
    ------------|-----------------|----------------|-----------------|
    ------------|--0------0----0--|--0--------0----|--0------0----0--|
    
                                                                          
    ----------------|-----------------|----------------|-----------------|
    ----------------|-----------------|----------------|-----------------|
    ----------------|--3------3----3--|--3--------3----|-----------------|
    --0--------0----|-----------------|----------------|--3------3----3--|
    
                                                                      
    ------------|-----------------|----------------|-----------------|
    --0----0----|-----------------|----------------|-----------------|
    ------------|-----------------|----------------|-----------------|
    ------------|--0------0----0--|--0--------0----|--0------0----0--|
    
                                                                          
    ----------------|-----------------|----------------|-----------------|
    ----------------|-----------------|----------------|-----------------|
    ----------------|--3------3----3--|--3--------3----|-----------------|
    --0--------0----|-----------------|----------------|--3------3----3--|
    
                                                                       
    ------------|-----------------|-----------------|-----------------|
    --0----0----|-----------------|-----------------|-----------------|
    ------------|--4----4----4----|--4----4----4----|--3----3----3----|
    ------------|-----------------|-----------------|-----------------|
    
                                                                           
    -----------------|-----------------|----------------|-----------------|
    -----------------|--2------2----2--|--2--------2----|-----------------|
    --3----3----3----|-----------------|----------------|-----------------|
    -----------------|-----------------|----------------|--0------0----0--|
    
                                                                           
    ----------------|-----------------|-----------------|-----------------|
    ----------------|-----------------|-----------------|-----------------|
    ----------------|--4----4----4----|--4----4----4----|--3----3----3----|
    
    Узнай ВСЕ о своем друге в ВК или FB
    --0--------0----|-----------------|-----------------|-----------------| -----------------|---------------|----------|-----------------|----------------| -----------------|---------------|----------|-----------------|----------------| --3----3----3----|---------------|----------|-----------------|----------------| -----------------|--0------------|----------|--0------0----0--|--0--------0----| -----------------|----------------|-----------------|------------| -----------------|----------------|-----------------|--0----0----| --3------3----3--|--3--------3----|-----------------|------------| -----------------|----------------|--3------3----3--|------------| -----------------|---------------|-----------------|---------------| --2----2----2----|--2------------|-----------------|---------------| -----------------|---------------|-----------------|---------------| -----------------|---------------|--0----0----0----|--0------------| -----------------|----------------|-----------------|------------| -----------------|----------------|-----------------|--0----0----| --3------3----3--|--3--------3----|-----------------|------------| -----------------|----------------|--3------3----3--|------------| -----------------|----------------|-----------------|----------------| -----------------|----------------|-----------------|----------------| -----------------|----------------|-----------------|----------------| --0------0----0--|--0--------0----|--0------0----0--|--0--------0----| -----------------|----------------|-----------------|------------| -----------------|----------------|-----------------|--0----0----| --3------3----3--|--3--------3----|-----------------|------------| -----------------|----------------|--3------3----3--|------------| -----------------|----------------|-----------------|----------------| -----------------|----------------|-----------------|----------------| -----------------|----------------|-----------------|----------------| --0------0----0--|--0--------0----|--0------0----0--|--0--------0----| -----------------|----------------|-----------------|------------| -----------------|----------------|-----------------|--0----0----| --3------3----3--|--3--------3----|-----------------|------------| -----------------|----------------|--3------3----3--|------------| -----------------|----------------|-----------------|----------------| -----------------|----------------|-----------------|----------------| -----------------|----------------|-----------------|----------------| --0------0----0--|--0--------0----|--0------0----0--|--0--------0----| -----------------|----------------|-----------------|------------| -----------------|----------------|-----------------|--0----0----| --3------3----3--|--3--------3----|-----------------|------------| -----------------|----------------|--3------3----3--|------------| -----------------|----------------|-----------------|----------------| -----------------|----------------|-----------------|----------------| -----------------|----------------|-----------------|----------------| --0------0----0--|--0--------0----|--0------0----0--|--0--------0----| -----------------|----------------|-----------------|------------| -----------------|----------------|-----------------|--0----0----| --3------3----3--|--3--------3----|-----------------|------------| -----------------|----------------|--3------3----3--|------------| -----------------|----------------|-----------------|----------------| -----------------|----------------|-----------------|----------------| -----------------|----------------|-----------------|----------------| --0------0----0--|--0--------0----|--0------0----0--|--0--------0----| -----------------|----------------|-----------------|------------| -----------------|----------------|-----------------|--0----0----| --3------3----3--|--3--------3----|-----------------|------------| -----------------|----------------|--3------3----3--|------------| -----------------|----------------|-----------------|----------------| -----------------|----------------|-----------------|----------------| -----------------|----------------|-----------------|----------------| --0------0----0--|--0--------0----|--0------0----0--|--0--------0----| -----------------|----------------|-----------------|------------| -----------------|----------------|-----------------|--0----0----| --3------3----3--|--3--------3----|-----------------|------------| -----------------|----------------|--3------3----3--|------------| -----------------|----------------|-----------------|----------------| -----------------|----------------|-----------------|----------------| -----------------|----------------|-----------------|----------------| --0------0----0--|--0--------0----|--0------0----0--|--0--------0----| -----------------|----------------|-----------------|------------| -----------------|----------------|-----------------|--0----0----| --3------3----3--|--3--------3----|-----------------|------------| -----------------|----------------|--3------3----3--|------------| -----------------|----------------|-----------------|----------------| -----------------|----------------|-----------------|----------------| -----------------|----------------|-----------------|----------------| --0------0----0--|--0--------0----|--0------0----0--|--0--------0----| -----------------|----------------|-----------------|------------| -----------------|----------------|-----------------|--0----0----| --3------3----3--|--3--------3----|-----------------|------------| -----------------|----------------|--3------3----3--|------------| -----------------|----------------|-----------------|----------------| -----------------|----------------|-----------------|----------------| -----------------|----------------|-----------------|----------------| --0------0----0--|--0--------0----|--0------0----0--|--0--------0----| -----------------|----------------|-----------------|------------| -----------------|----------------|-----------------|--0----0----| --3------3----3--|--3--------3----|-----------------|------------| -----------------|----------------|--3------3----3--|------------| -----------------|----------------|-----------------|----------------| -----------------|----------------|-----------------|----------------| -----------------|----------------|-----------------|----------------| --0------0----0--|--0--------0----|--0------0----0--|--0--------0----| -----------------|----------------|-----------------|------------| -----------------|----------------|-----------------|--0----0----| --3------3----3--|--3--------3----|-----------------|------------| -----------------|----------------|--3------3----3--|------------| -----------------|----------------|-----------------|----------------| -----------------|----------------|-----------------|----------------| -----------------|----------------|-----------------|----------------| --0------0----0--|--0--------0----|--0------0----0--|--0--------0----| -----------------|----------------|-----------------|------------| -----------------|----------------|-----------------|--0----0----| --3------3----3--|--3--------3----|-----------------|------------| -----------------|----------------|--3------3----3--|------------| -----------------|----------------|-----------------|----------------| -----------------|----------------|-----------------|----------------| -----------------|----------------|-----------------|----------------| --0------0----0--|--0--------0----|--0------0----0--|--0--------0----| -----------------|----------------|-----------------|------------| -----------------|----------------|-----------------|--0----0----| --3------3----3--|--3--------3----|-----------------|------------| -----------------|----------------|--3------3----3--|------------| ---------------|--------------|--------------|| ---------------|--------------|--------------|| ---------------|--------------|--------------|| --0------------|--------------|--------------||

    найти лекарство
    список лекарств






    О сайтеАккордыХит-парадПоискУроки ФорумыИщу песню
    ПрограммыСвежачок-сПодпискаСтатьи
    Яндекс.Метрика