Басовая табулатура Radiohead | The Tourist гитара табулатуры уроки тексты песен Radiohead текст lyrics песня аккорды песни ноты нота электрогитара струна  
   А Б В Г Д Е Ж З И К Л М Н О П Р С Т У Ф Х Ч Ш Ы Э Ю Я       Разные песни
1-9 A B C D E F G H I J K L M N O P Q R S T U V W Y Z      Все исполнители in english

    



группа Radiohead, Басовая табулатура песни The Tourist

Продолжаем грести бабос на ботах в Telegram.
Только в этот раз есть вариант автоматизировать это дело, привлекая рефералов. Вы можете заработать если »

Группа: Radiohead - другие аккорды (189),   о группе (6 статей),   диски (9),   фотографии (134)
Басовая табулатура песни: The Tourist
Просмотров: 1386
Прислал: Whipper (indiespace@narod.ru)




    
 Intro
G|---------------------------------------------|
D|---------------------------------------------|
A|------2------2-------------------------------|
E|--------------------2--------------4---------|
 Verse ("It barks at no else but me..."
G|-----------------------------------------------|
D|-----------------------------------------------|
A|------2----------------------------------------|
E|--------------------2------(/5)------4---------| repeat until
 Chorus ("Hey, man, slow down...")
G|--------------------------------------------------------|
D|------------2-2--------2-2--------2-2-------------------|
A|----2-----2-----2----2-----0----2-----------------------|

Продолжаем грести бабос на ботах в Telegram.
Только в этот раз есть вариант автоматизировать это дело, привлекая рефералов. Вы можете заработать если »

E|--------------------------------------2--3--4--5--------| Solo Guitar Part G|-----------------------------------------------| D|-----------------------------------------------| A|------2----------------------------------------| E|--------------------2----------------5---------| Outro G|-----------------------------------------------------------------------| D|--------------------------------------------------------------ding!----| A|--2-----2---2-----2---2-----2---2-----2---2-----2---2-----2------------| E|------0---0-----0---0-----0---0-----0---0-----0---0-----0---0----------|

искать в аптеке
список лекарств






О сайтеАккордыХит-парадПоискУроки ФорумыИщу песню
ПрограммыСвежачок-сПодпискаСтатьи
Яндекс.Метрика