Басовая табулатура Radiohead | Lucky гитара табулатуры уроки тексты песен Radiohead текст lyrics песня аккорды песни ноты нота электрогитара струна  
   А Б В Г Д Е Ж З И К Л М Н О П Р С Т У Ф Х Ч Ш Ы Э Ю Я       Разные песни
1-9 A B C D E F G H I J K L M N O P Q R S T U V W Y Z      Все исполнители in english

    



группа Radiohead, Басовая табулатура песни Lucky

Продолжаем грести бабос на ботах в Telegram.
Только в этот раз есть вариант автоматизировать это дело, привлекая рефералов. Вы можете заработать если »

Группа: Radiohead - другие аккорды (189),   о группе (6 статей),   диски (9),   фотографии (134)
Басовая табулатура песни: Lucky
Просмотров: 1170
Прислал: Whipper (indiespace@narod.ru)




    
   
   FIG.1                                                     FILL.1
G:---------------------------------------------------------|------------------|
D:---------------------------------------------------------|--------------7-9-|
A:-7--7-----------------------5-7--7-77-7------------------|-7--7--77-7--7-9--|
E:------5--53--3/7--7--7-7-7-------------7-8--83--3/7--7-|------------------|
   FILL.2                                                         FIG.2
G:------------------------|-----------|------------|------------|----------------------------|
D:-------------10-7-------|-----------|------------|------------|----------------------------|
A:-7--7--77-7------10(10)-|-FIG.1(x1)-|-Fill.1(x1)-|-7--7--77-7-|---------------5-7--7--77-7-|
E:------------------------|-----------|------------|------------|-0-5-5-5H7P5-5--------------|
                FIG.3
G:-----------|------------------------------------|
D:-----------|------------------------------------|
A:-Fig.2(x1)-|--------------5-7--7--77-7-7/10--14-|
E:-----------|0-5-5-5H7P5-5-----------------------|
                                 (x2)

Продолжаем грести бабос на ботах в Telegram.
Только в этот раз есть вариант автоматизировать это дело, привлекая рефералов. Вы можете заработать если »

G:-------------------------------------|-----------|-----------|-----------|-----------| D:------------10-7---------------------|-----------|-----------|-----------|-----------| A:-7--7--77-7-----10---7--7--77-7------|-Fig.1(x1)-|-Fill1(x1)-|-Fill2(x1)-|-Fig.1(x1)-| E:--------------------------------1111-|-----------|-----------|-----------|-----------| G:-----------|------------|-----------|-----------| D:-----------|------------|-----------|-----------| A:-Fill1(x1)-|-7--7--77-7-|-Fig.2(x2)-|-Fig.3(x1)-| E:-----------|------------|-----------|-----------| (x4) G:-------------------|------------|-----------|-------| D:-------------------|------------|-----------|-------| A:-7--5--3-----------|-7--7--77-7-|-Fig.2(x2)-|-Fig.3-| E:----------2--22--0-|------------|-----------|-------|

искать в аптеке
список лекарств






О сайтеАккордыХит-парадПоискУроки ФорумыИщу песню
ПрограммыСвежачок-сПодпискаСтатьи
Яндекс.Метрика