Басовая табулатура Radiohead | Electioneering гитара табулатуры уроки тексты песен Radiohead текст lyrics песня аккорды песни ноты нота электрогитара струна  
   А Б В Г Д Е Ж З И К Л М Н О П Р С Т У Ф Х Ч Ш Ы Э Ю Я       Разные песни
1-9 A B C D E F G H I J K L M N O P Q R S T U V W Y Z      Все исполнители in english

    



группа Radiohead, Басовая табулатура песни Electioneering

Продолжаем грести бабос на ботах в Telegram.
Только в этот раз есть вариант автоматизировать это дело, привлекая рефералов. Вы можете заработать если »

Группа: Radiohead - другие аккорды (189),   о группе (6 статей),   диски (9),   фотографии (134)
Басовая табулатура песни: Electioneering
Просмотров: 1122
Прислал: Whipper (indiespace@narod.ru)




    

        intro/verse                                                     
G---||--------------------------||--------------------------------------
D---||--------------------------||--------------------------------------
A---||--5--5-----5-----5-----3--||--------------------------------------
E---||--------5-----5-----3-----||--------------------------------------
                                                                        
                   inbetween bit :)                                     
G---------------------------------------------------|-------------------
D---------------------------------------------------|-------------------
A---3--3--3--3--3--3--3--3--3--3--3--3--3--5--7--8--|-------------------
E---------------------------------------------------|-------------------
                                                                        
                                                                        
G-----------------------------------------------------------------------
D-----------------------------------------------------------------------
A-----------------------------------------------------------------------
E------------------------------------------------5--5--5--5--5--5--3----
                                                                        
                    chorus                                              
G---------------||--------------------------------------------|---------
D---------------||--------------------------------------------|---------
A---------------||--5--5--5--7--7--7--8--8--8--9--9--9--------|---------
E---3--1--1--0--||--------------------------------------------|---------
                                                                        
                                                                        
G-----------------------------------------------------------------------
D-----------------------------------------------------------------------
A-----------------------------------------------------------------------
E------------------------------------------------5--5--3--3--1--1--1----
                                                                        
                          verse                                         
G---------------||--------------------|--------------------------|------
D---------------||--------------------|--------------------------|------
A---------------||--5--5-----5-----5--|--5--5--7--7--8--8--9--9--|------
E---0--1--0--1--||--------5-----3-----|--------------------------|------
                                                                        
                                              versus (?) !!! :) lol     
G------------------------------------------|-----------------------|----
D------------------------------------------|-----------------------|----
A------------------------------------------|-----------------------|----
E------------------------------------------|--5--5-----5--7--8--9--|----
                                                                        
                                                                        
G---------------------|-------------------------------------------------
D---------------------|-------------------------------------------------
A---------4-----------|-------------------------------------------------
E---5--5-----3--1--0--|-------------------------------------------------
                                                                        
------------------------------------------------------------------------------------------------
 Electioneering, Radiohead.
Corrections by Nick Key
        intro/verse                                                     
G---------||-----7-------------------7---------------------||
D---------||----------------------------------------3h5-3--||
A--8h10-8-||--5--------3-----3---2-5--------3--------------||

Продолжаем грести бабос на ботах в Telegram.
Только в этот раз есть вариант автоматизировать это дело, привлекая рефералов. Вы можете заработать если »

E---------||-------3-5---3-5---3--------3-5---3-5---3------|| Verse 1 Fig. 1 - 2x ||------------------------| ||------------------------| ||--5--5-----3-----3---2--| ||-------3-5---3-5---3----| G---------------------------------------| D---------------------------------------| A---33--3333-3-5-7-8--------------------| E---------------------55--5555-5-3-1-0--| Play whole verse two times, then fig. 1 two times chorus Fig. 2 - 3x ||---------------------------------| ||---------------------------------| ||--5-5-5--7-7-7--8-8-8--10-10-10--| ||---------------------------------| (variations) -----------------------------------------------| -----------------------------------------------| -10h12-12-12-10h12-12-10h12-10h12-12-10-8-7----| -----------------------------------------------| Intro to verse 2 - 2x ||---------------------------------------| ||---------------------------------------| ||--5--5-5-----3---2--5--5-5-----3-------| ||---------3-5---3-----------3-5---3-1---| Verse 2 2x ||------------------------| ||------------------------| ||--5-5--0-3-0-5-7-8-10---| ||------------------------| G---------------------------------------| D---------------------------------------| A---33--3333-3-5-7-8--------------------| E---------------------55--5557-5-3-1-0--| Repeat verse two times Fig. 1 two times Chorus After pause, play: ||---------------------------------| ||---------------------------------| ||--5-5-5--5-5-5--5-5-7-8-10-------| ||---------------------------------|

искать в аптеке
список лекарств






О сайтеАккордыХит-парадПоискУроки ФорумыИщу песню
ПрограммыСвежачок-сПодпискаСтатьи
Яндекс.Метрика