Басовая табулатура Radiohead | Karma Police гитара табулатуры уроки тексты песен Radiohead текст lyrics песня аккорды песни ноты нота электрогитара струна  
   А Б В Г Д Е Ж З И К Л М Н О П Р С Т У Ф Х Ч Ш Ы Э Ю Я       Разные песни
1-9 A B C D E F G H I J K L M N O P Q R S T U V W Y Z      Все исполнители in english

    



группа Radiohead, Басовая табулатура песни Karma Police

Продолжаем грести бабос на ботах в Telegram.
Только в этот раз есть вариант автоматизировать это дело, привлекая рефералов. Вы можете заработать если »

Группа: Radiohead - другие аккорды (189),   о группе (6 статей),   диски (9),   фотографии (134)
Басовая табулатура песни: Karma Police
Просмотров: 1342
Прислал: Whipper (indiespace@narod.ru)




    
intro+1st verse
       karma       police ...
    Am        d/f#        Em      d/f#  G       Am        F         Em  D/F#  G
g ----------------------------------------------------------------------------------------
d---------------------------------------------------------------------------------------
a----------------------------------------------------------------------------------------
e--5---5------2-2---------0-----2--3----3------5-5-5-----1-1-1---0----2--3---3--

   Am         D             G          C     G/B   Am           Bm               D
g----------------------------------------------------------------------------------------
d------------------------------------------------------------------------2-/5-----------
a-------------------------------------3------2-------------------2 --2--------5-5-5---
e--5-5-5-/-10--10-(10) -3----3------------------5-5-5-553------------------------
2nd+3rd verse
2. karma police...
3. karma police ...
   Am      D9/f#      Em       D/F#  G      Am      F      Em    D/F#  G
g----------------------------------------------------------------------------------------
d---------------------------------------------------------------------------------------
a--------------------------------------------------------8-8-8-10 7--------------------
e-5--5-(5)-2-2-2-1---0--0-0----2---33-3-3--5-5-5--------------------0---2-----3-3-3--
   Am      D           G    G/F#        C        G/B   Am           Bm        D
g----------------------------------------------------------------------------------------
d---------------------------------------------------------------------------------------
a-----------5-5-5-5--------------------3-3-----2-2-----------------2-2-2-2-5-5-  
e-5-5-5-------------3-3-3-3---------------------------5---5--5-5-5---------------------

chorus
this is what you get...
    C    D/A  (1.) C                Bm                  D 
g----------------------------------------------------------------------------------------
d---------------------------------------------2/4---------------------------------------
a--------------------3-3-3-3-3-3-3-2-2-2----------5-5-5-5-------------------------
e--3------------------------------------------------------------------------------------

(2.)  C         C/B      C/A          C/G        B5/F#           D
g----------------------------------------------------------------------------------------
d---------------------------------------------------------------------------------------
a--3-3---------2-2------------------------------------------------------------------     
e-------------------------5--5----------3---------2--2--2-0--0---2-----------------

BRIDGE
for a minute...
     Bm      D           G             D         G          D             E
g----------------------------------------------------------------------------------------
d-----------------------------------------------------------------------------------7-6-

Продолжаем грести бабос на ботах в Telegram.
Только в этот раз есть вариант автоматизировать это дело, привлекая рефералов. Вы можете заработать если »

a---2-2-2-2-5-5-5-5----------------5------------------5-5-5-5-5/7-7--7--5/7--- e------------------------3--------3---2----0---3-3-3----------------0--0--------- Bm D G D G D g--------------------------------------------------------------7------------ d----------------------------------------------7----5---7-9--------------7 a-2-4-5-2/5-7-9-5-10-12-14-105-7-9------------------------------5---7/9-- e-------------------------------------------------------------------------- E g------------------------------------------------------------- d----------------------------------7---7-------------------- a---7---7--------7--9--9----7----------------------------- e-----0----0------------------------------------------------ phew for a minute... Bm D G D g--------------------------------------------------------------- d---------------------------------------------------------------- a--2----2-2-2-2--5--5-5-5-5----------------5-----5----5--(5) e----------------------------------3--------3--------------------- G D E g------------------------------------------------------------------ d------------------------------------------------------------------ a------------5---5-5--5-5--5---5--7----7-----5---7---7--5--7 e---3--3--3--------------------------0----0------------------- OUTRO Bm D G D g---------------------------------------------------------------- d---------------------------------------------------------------------- a--2--4--5--2--/5--7---9--5---------------------------5---7--9--5 e-------------------------------------3--5--7--3--/------------------ G D E Bm g----------------------------------------------------------------- d------------------------------------------------------------------ a-------------------5--7-9-5-5-7---7----7-----7---5-----2---- e--3--5--7--3/-------------------0----0---------------7--------

найти лекарство
список лекарств






О сайтеАккордыХит-парадПоискУроки ФорумыИщу песню
ПрограммыСвежачок-сПодпискаСтатьи
Яндекс.Метрика