Басовая табулатура Radiohead | Subterrerian Homesick Alien гитара табулатуры уроки тексты песен Radiohead текст lyrics песня аккорды песни ноты нота электрогитара струна  
   А Б В Г Д Е Ж З И К Л М Н О П Р С Т У Ф Х Ч Ш Ы Э Ю Я       Разные песни
1-9 A B C D E F G H I J K L M N O P Q R S T U V W Y Z      Все исполнители in english

    



группа Radiohead, Басовая табулатура песни Subterrerian Homesick Alien

Работа в Европе для граждан РФ, Украины, СНГ

  • минимальная зарплата $500.
  • виза и контракт на полгода, возможно продление
  • проживание оплачивает работодатель
  • нужен только загранпаспорт
  • оформление 190 €
  • данное предложение - отличная возможность эмигрировать в Европу и закрепиться здесь навсегда.

  • Мы свяжемся с Вами по WhatsApp или Viber и ответим на любые вопросы.
    на нашем сайте можно почитать подробнее »

    Группа: Radiohead - другие аккорды (189),   о группе (6 статей),   диски (9),   фотографии (134)
    Басовая табулатура песни: Subterrerian Homesick Alien
    Просмотров: 1195
    Прислал: Whipper (indiespace@narod.ru)




        
    Bass comes in at approximately 0:05
    G-----------------------------------------------------|
    D-----------------------------------------------------|
    A-10(12)-10(12)-10(12)-10(12)-11/---------------------|
    D---------------------------------5---3-0-5---3-0-5---|
    "...for cracks in the pavement..."
    G-----------------------------------------------------|
    D--------9-10-12/-------------------------------------|
    A-/10-12----------------------------------------------|
    D-------------------5-5-5-3-0-5---3-0-5---------------|
    "...home movies for the folks back home..."
    G--------------------------------------------|
    D-------5(7)5-0------------------------------|
    A--------------------------------------------|
    D--5-5-----------5-5-5-3-0-5-----------------|
    "...and live for their secrets..."
    G---------------------------------|
    D---------------------------------|
    A---------------------------------|
    D--5-7-9-10-11-12/5--3-0-3(5)-5-5-|
    This is the tablature before the first "Uptight!"
    G-------------------------------------------|
    D-------------------------------------------|
    A-------------------------------------------|
    D--5-7-9-10-12-14/3---3/10---12/5--3-0-5----|
    G------------------------------------------------|
    D------------------------------------------------|
    A------------------------------------------------|
    D--5-7-9/12-14-15---10---5---3(5)5--5--3(5)5--5--|
    G-----------------------------------|
    D-------2-3--2--0--3--2--0----------|
    A---3-5---------------------3--5----|
    D-5-------------------------------5-|
    *Things become mellow for awhile.* Do more improvisation
    with the third and fifth frets of the low-D string, and 
    then:
    G-----------------------------------|
    D-----------------------------------|
    A----------------------------3-5----|
    D-12/5--5--5--5--5--5--5--5------5--|
    "I'd...love to seeeeee it....."
    
    Узнай ВСЕ о своем друге в ВК или FB
    G--------------------------------------------------------------| D-----------9-10-9-------5-5-5-------5-5-5-------5-5/7/5-------| A----/10-12--------12/---------7-5---------7-5-----------7-5---| D-5--------------------5-----------5-----------5-------------5-| The improvisation changes to the basic pattern shown here for this bit (and some at the end as well). The tablature shown beyond the first row of bars signifies the temporary end of the pattern with a tiny improvisational section. G-------------------------------------------------|------------------| D-5-5-5-------5-5-5-------5-5/7/5-------5-5-5-----|-5-7-9-10-9-------| A-------7-5---------7-5-----------7-5---------7-5-|------------10/---| D-----------5-----------5-------------5-----------|----------------5-| "They'd shut me away, but I'd be all right" G-------------------------------------------------5---------| D-------------------------------------------5-5-5---5-7-5-5-| A-----------------------------------------------------------| D--5-5-x-5-x-x-5-5-x-5-x-x-5-x-5-/-15-15-15-----------------| "Uptight" starts to kick in again! G--7-5-4----------------------------------------------| D--------7-5-3-2-0------------------------------------| A-----------------------------------------------------| D------------------3---3/10---12/3(5)-5-3(5)-5-3(5)-5-| G------------------------------------------------------------| D---------------------------------------------0-2-3---3(5)---| A---0-2-3-2-0---------------------------0-2-3--------------3-| D-5-----------3---3/10---10-12/3(5)-5-5----------------------| This is a nice time to use a slap method, such as the thumb: G------------------------------------------------------------| D-3-2-0-----3-2-0----------0-2-3-----------------------------| A--------------------0-2-3---------3-------7-5---------------| D--------5---------5-------------------5-------5--3(5)-5-----| OUTRO (May sound best on the HIGHER D-string): G------------------------------------------------------------| D------------------------------------------------------------| A------------------------------------------------------------| D-5-/-12-------------10--------------7-----------------------|

    лекарство в аптеке
    список лекарств






    О сайтеАккордыХит-парадПоискУроки ФорумыИщу песню
    ПрограммыСвежачок-сПодпискаСтатьи
    Яндекс.Метрика