Басовая табулатура Radiohead | Paranoid Android гитара табулатуры уроки тексты песен Radiohead текст lyrics песня аккорды песни ноты нота электрогитара струна  
   А Б В Г Д Е Ж З И К Л М Н О П Р С Т У Ф Х Ч Ш Ы Э Ю Я       Разные песни
1-9 A B C D E F G H I J K L M N O P Q R S T U V W Y Z      Все исполнители in english

    



группа Radiohead, Басовая табулатура песни Paranoid Android

Работа в Европе для граждан РФ, Украины, СНГ

  • минимальная зарплата $500.
  • виза и контракт на полгода, возможно продление
  • проживание оплачивает работодатель
  • нужен только загранпаспорт
  • оформление 190 €
  • данное предложение - отличная возможность эмигрировать в Европу и закрепиться здесь навсегда.

  • Мы свяжемся с Вами по WhatsApp или Viber и ответим на любые вопросы.
    на нашем сайте можно почитать подробнее »

    Группа: Radiohead - другие аккорды (189),   о группе (6 статей),   диски (9),   фотографии (134)
    Басовая табулатура песни: Paranoid Android
    Просмотров: 1218
    Прислал: Whipper (indiespace@narod.ru)




        
    
    |---------------------------------------------------------------------------|
    |-7-8-------7-8------7-8------8-7----------7-8------7-8------8-7------------|
    |------10--------8--------7-------7-8-10--------8--------7-------7-8-10-----|
    |---------------------------------------------------------------------------|
    |-----------------------------------------------|
    |-----------------------------------------------|
    |-0-1--3---1--3-----------1--------0-1---------|
    |-----------------1--1--5-----3--3-------0------|
    |-----------------------------------------------------------|
    |-----------------------------------------------------------|
    |-------0-1---------5-4-3--1--3-----------1--------0-1-----|
    |-3--3-------0--------------------1--1--3-----3--3-------0--|
    |---------------------------------------------------------------------------|
    |-7-8-------7-8------7-8------8-7----------7-8------7-8------8-7------------|
    |------10--------8--------7-------7-8-10--------8--------7-------7-8-10-----|
    |---------------------------------------------------------------------------|
    |-------------|
    |-------------|
    |-------------|
    |-0-----12---|
    |----------------------------|
    |----------------------------|     x 3
    |--------3-------------3--5--|   Play this 3 times
    |-5--5-5---5--4--4--4--------|
    |---------------------9-10------------------------8-9-10--------------------|
    |---------------------------8-9--10-10-------------------8-10-10------------|
    |--------3-----------------------------8-9-10-11-----------------8-9-10-11--|
    |-5--5-5---5--4--4--4-------------------------------------------------------|
    |-10-9-8---------------------------8-10-------------------------------------|
    |--------10-8-9-10-10-------------------10-10-----------10-9-8-------------|
    |---------------------8-9-10-11-11------------8-9-10-11---------------------|
    |---------------------------------------------------------------------------|
    |--------------------------------------|
    |--------------------------------------|
    |--------3-------------3--5------------|
    |-5--5-5---5--4--4--4-------5---------|
    |-------------------------------------|
    |-------------------------------------|
    |-3-4-5-----------3--------------3-5--|
    |-------4--5--5-5---5--4---4-4-4------|
    |---------------------9-10------------------------8-9-10--------------------|
    
    Узнай ВСЕ о своем друге в ВК или FB
    |---------------------------8-9--10-10-------------------8-10-10------------| |--------3-----------------------------8-9-10-11-----------------8-9-10-11--| |-5--5-5---5--4--4--4-------------------------------------------------------| |-10-9-8---------------------------8-10-------------------------------------| |--------10-8-9-10-10-------------------10-10-----------10-9-8-------------| |---------------------8-9-10-11-11------------8-9-10-11---------------------| |---------------------------------------------------------------------------| |----------------------------------------------------------| |----------------------------------------------------------| |---------5--6--6--6--5---------------5--6--6--6--5------| |-5--5-5-------------------5---5--5-5----------------------| |---------------------------------------------------------------------| |---------------1-3---------------3-1------------------1-3------------| |-3-3----------------3-3--------------3-1-3-3--------------3-3--------| |------1-2-3-4-----------1-2-3-4--------------1-2-3-4----------1-2-3--| |-----------------------| |-----------------------| |-3-2--1--1-0-----------| |-------------3--5-----| The rhythm is changing, |---------------------------------------------------------------------------| |------------------------------------------------------------------1-3------| |--------3----------3-5--------------3----------3-5--3-3----------------3-3-| |-5--5-5---5-4--4-4-----5----5--5-5---5-4--4-4-----------1-2-3-4-----------| |---------------------------------------------------------------------------| |----------1-3------------------1-2-3---------------------------------------| |--------------1-2-3-3----------------1-3-3-------3-2--1--1-0---------------| |-1-2-3-4--------------1-2-3-4--------------1-2-3-------------3---5--------| |----------------------------------------------------------------------| |----------------------------------------------------------------------| |---------5--6--6--6-5-3-5----------3-3--------------5--6--6--6--5-0-1-| |-5--5-5-------------------4--5---------3-4-5--5-5--------------------| |---------------------------------------------------------------------------| |----------------1--3------------------1-3-1-3-----------------1-2-3--------| |-3--3-----------------3--3--------------------1-2-3-3---------------1-3-3--| |-------1-2-3-4--------------0-1-2-3-4-----------------1-2-3-4--------------| |----------------------------| |----------------------------| |--------3-2-1---------------| |-1-2-3---------5-----------|

    лекарство в аптеке
    список лекарств






    О сайтеАккордыХит-парадПоискУроки ФорумыИщу песню
    ПрограммыСвежачок-сПодпискаСтатьи
    Яндекс.Метрика