Басовая табулатура Radiohead | Black Star гитара табулатуры уроки тексты песен Radiohead текст lyrics песня аккорды песни ноты нота электрогитара струна  
   А Б В Г Д Е Ж З И К Л М Н О П Р С Т У Ф Х Ч Ш Ы Э Ю Я       Разные песни
1-9 A B C D E F G H I J K L M N O P Q R S T U V W Y Z      Все исполнители in english

    



группа Radiohead, Басовая табулатура песни Black Star

Продолжаем грести бабос на ботах в Telegram.
Только в этот раз есть вариант автоматизировать это дело, привлекая рефералов. Вы можете заработать если »

Группа: Radiohead - другие аккорды (189),   о группе (6 статей),   диски (9),   фотографии (134)
Басовая табулатура песни: Black Star
Просмотров: 800
Прислал: Whipper (indiespace@narod.ru)




    

G||-------------------------------|-------------------------------|
D||-------------------------------|-------------------------------|
A||--5-----------------3---2---0--|--5-----------------3---2---0--|
E||-----------0-------------------|-----------0-------------------|

                                                                           
-------------------------------|--------------------|---------------------|
-------------------------------|--------------------|---------------------|
--5-----------------3---2---0--|--5-----------------|--3---2---0----------|
-----------0-------------------|-----------0--------|---------------------|

                                                                        
----------------------|------------------------|-----------------------|
----------------------|------------------------|-----------------------|
----------------------|------------------------|--7-----7--9----7------|
--3----3----8----8----|--7----7----10----10----|-----7-----------------|

                                                                        
-----------------------|----------------------|------------------------|
-----------------------|----------------------|------------------------|
--7-----7--9----7------|----------------------|------------------------|
-----7-----------------|--3----3----8----8----|--7----7----10----10----|

                                                                           
-----------------------|-----------------------|--------------------------|
-----------------------|-----------------------|--------------------------|
--7-----7--9----7------|--7-----7--9----7------|--3--3--3--3--3--3--3--3--|
-----7-----------------|-----7-----------------|--------------------------|

                                                      
--------------------------|--------------------------|
--------------------------|--------------------------|
--3--3--3--3--3--3--3--3--|--2--2--2--2--2--2--2--2--|
--------------------------|--------------------------|

                                                                           
--------------------------|-----------------------|-----------------------|
--------------------------|-----------------------|-----------------------|
--5--5--5--5--5--5-3---2--|--0----0----0----0-2---|--3--------5--5-3---2--|
--------------------------|-----------------------|-----------------------|

                                                                            
-----------------------|------------------------|--------------------------|
-----------------------|------------------------|--------------------------|
--0----0----0----0-2---|--3----3----5-5---5--5--|--------------3--3--3--3--|
-----------------------|------------------------|--3--3--3--3--------------|

                                                                    
-------------------------|------------------|----------------------|
-------------------------|------------------|----------------------|
--------------3--2----0--|------------------|----------------------|
--3--3--3--3-------------|------------------|--3----3----8----8----|

                                                                         
------------------------|-----------------------|-----------------------|
------------------------|-----------------------|-----------------------|
------------------------|--7-----7--9----7------|--7-----7--9----7------|
--7----7----10----10----|-----7-----------------|-----7-----------------|

                                                                        
----------------------|------------------------|-----------------------|
----------------------|------------------------|-----------------------|
----------------------|------------------------|--7-----7--9----7------|
--3----3----8----8----|--7----7----10----10----|-----7-----------------|

                                                                              
-----------------------|--------------------------|--------------------------|
-----------------------|--------------------------|--------------------------|
--7-----7--9----7------|--3--3--3--3--3--3--3--3--|--3--3--3--3--3--3--3--3--|
-----7-----------------|--------------------------|--------------------------|

                                                                              
--------------------------|--------------------------|-----------------------|
--------------------------|--------------------------|-----------------------|
--2--2--2--2--2--2--2--2--|--5--5--5--5--5--5-3---2--|--0----0----0----0-2---|
--------------------------|--------------------------|-----------------------|

                                                                         
-----------------------|-----------------------|------------------------|
-----------------------|-----------------------|------------------------|
--3--------5--5-3---2--|--0----0----0----0-2---|--3----3----5-5---5--5--|
-----------------------|-----------------------|------------------------|

                                                     
--------------------------|-------------------------|

Продолжаем грести бабос на ботах в Telegram.
Только в этот раз есть вариант автоматизировать это дело, привлекая рефералов. Вы можете заработать если »

--------------------------|-------------------------| --------------3--3--3--3--|--------------3--2----0--| --3--3--3--3--------------|--3--3--3--3-------------| -------------------------------|-------------------------------| -------------------------------|-------------------------------| --5-----------------3---2---0--|--5-----------------3---2---0--| -----------0-------------------|-----------0-------------------| -------------------------------|------------------|--------------------| -------------------------------|------------------|--------------------| --5-----------------3---2---0--|------------------|--------------------| -----------0-------------------|------------------|--3--------8--------| ---------------------|-----------------------|-----------------------| ---------------------|-----------------------|-----------------------| ---------------------|--7-----7--9----7------|--7-----7--9----7------| --7--------10--------|-----7-----------------|-----7-----------------| --------------------|---------------------|-----------------------| --------------------|---------------------|-----------------------| --------------------|---------------------|--7-----7--9----7------| --3--------8--------|--7--------10--------|-----7-----------------| -----------------------|--------------------------|--------------------------| -----------------------|--------------------------|--------------------------| --7-----7--9----7------|--3--3--3--3--3--3--3--3--|--3--3--3--3--3--3--3--3--| -----7-----------------|--------------------------|--------------------------| --------------------------|--------------------------|-----------------------| --------------------------|--------------------------|-----------------------| --2--2--2--2--2--2--2--2--|--5--5--5--5--5--5-3---2--|--0----0----0----0-2---| --------------------------|--------------------------|-----------------------| -----------------------|-----------------------|------------------------| -----------------------|-----------------------|------------------------| --3--------5--5-3---2--|--0----0----0----0-2---|--3----3----5-5---5--5--| -----------------------|-----------------------|------------------------| --------------------------|-------------------------| --------------------------|-------------------------| --------------3--3--3--3--|--------------3--2----0--| --3--3--3--3--------------|--3--3--3--3-------------| -------------------------------|-------------------------------| -------------------------------|-------------------------------| --5-----------------3---2---0--|--5-----------------3---2---0--| -----------0-------------------|-----------0-------------------| -------------------------------|-------------------------------| -------------------------------|-------------------------------| --5-----------------3---2---0--|--5-----------------3---2---0--| -----------0-------------------|-----------0-------------------| -------------------------------|-------------------------------| -------------------------------|-------------------------------| --5-----------------3---2---0--|--5-----------------3---2---0--| -----------0-------------------|-----------0-------------------| -------------------------------|-------------------------------| -------------------------------|-------------------------------| --5-----------------3---2---0--|--5-----------------3---2---0--| -----------0-------------------|-----------0-------------------| --------------------------|| --------------------------|| --------------------------|| --------------------------||

поиск лекарств
список лекарств






О сайтеАккордыХит-парадПоискУроки ФорумыИщу песню
ПрограммыСвежачок-сПодпискаСтатьи
Яндекс.Метрика