Басовая табулатура Radiohead | Bullet Proof... I wish I was гитара табулатуры уроки тексты песен Radiohead текст lyrics песня аккорды песни ноты нота электрогитара струна  
   А Б В Г Д Е Ж З И К Л М Н О П Р С Т У Ф Х Ч Ш Ы Э Ю Я       Разные песни
1-9 A B C D E F G H I J K L M N O P Q R S T U V W Y Z      Все исполнители in english

    



группа Radiohead, Басовая табулатура песни Bullet Proof... I wish I was

Продолжаем грести бабос на ботах в Telegram.
Только в этот раз есть вариант автоматизировать это дело, привлекая рефералов. Вы можете заработать если »

Группа: Radiohead - другие аккорды (189),   о группе (6 статей),   диски (9),   фотографии (134)
Басовая табулатура песни: Bullet Proof... I wish I was
Просмотров: 1350
Прислал: Whipper (indiespace@narod.ru)




    
RIFF #1 ("Limb by limb, tooth by tooth...")
G---------------------------------------------------------------|
D---------------10--10-----10-10h12-9---9-9-----12--12--9h10-9--|
A-12--12-12--10---------10-------------------10-----------------|
E---------------------------------------------------------------|
G-----------------------------------------------------------------------|
D------------9-10------10-10h12-9---9-9-----12--12-12-----12--12--9h10-9|
A-12--12-12---------10-------------------10------------10---------------|
E-----------------------------------------------------------------------|
This first riff segues cleanly into the second, which is played during the
gorgeous chorus.
RIFF #2 ("Bulletprooooooo...")
G-----------------------------------------------------------------------|

Продолжаем грести бабос на ботах в Telegram.
Только в этот раз есть вариант автоматизировать это дело, привлекая рефералов. Вы можете заработать если »

D-----------------9---9-----10-12---[10]------9h10----------------------| A-10---10-10---12----------------------------------10-9-7----9----10----| E------------------------10-------------------------------10---10-------| G----------------------------------------| D-------------9---9--10--12--10------[9]-| A--10-10---12--------------------x-x-----| E----------------------------------------| KEY: h=hammer-on x=harmonic []=let ring

лекарство в аптеке
список лекарств






О сайтеАккордыХит-парадПоискУроки ФорумыИщу песню
ПрограммыСвежачок-сПодпискаСтатьи
Яндекс.Метрика