Басовая табулатура Radiohead | Bones гитара табулатуры уроки тексты песен Radiohead текст lyrics песня аккорды песни ноты нота электрогитара струна  
   А Б В Г Д Е Ж З И К Л М Н О П Р С Т У Ф Х Ч Ш Ы Э Ю Я       Разные песни
1-9 A B C D E F G H I J K L M N O P Q R S T U V W Y Z      Все исполнители in english

    



группа Radiohead, Басовая табулатура песни Bones

Продолжаем грести бабос на ботах в Telegram.
Только в этот раз есть вариант автоматизировать это дело, привлекая рефералов. Вы можете заработать если »

Группа: Radiohead - другие аккорды (189),   о группе (6 статей),   диски (9),   фотографии (134)
Басовая табулатура песни: Bones
Просмотров: 1286
Прислал: Whipper (indiespace@narod.ru)




     G
:------------------------------------------------|
D :------------------------------------------------|
A :-5-55---------------------------------------4---|
E :------3-33-2-0-2/-5--5-7-5--5-0-2/-5-7-5--5---5-|
G :------------------------------------------------|
D :------------------------------------------------|
A :-5-55-------------------------4-------------4---|
E :------3-33-2-0-2/-5--5-7-5--5---5--5-7-5--5---5-|
G :-------------------------------------------------------|
D :-------------------------------------------------------|

Продолжаем грести бабос на ботах в Telegram.
Только в этот раз есть вариант автоматизировать это дело, привлекая рефералов. Вы можете заработать если »

A :---------------------------------------------------4---| E :-0-0-0-0-2-2-2-2-3-3-3-3-5-7-5--5-0-2/-5--5-7-5--5---5-| G :-------------------------------------------| D :-------------------------------------------| A :-------------------------4-------------4---| E :-0----2----3----5-7-5--5---5--5-7-5--5---5-|

лекарство в аптеке
список лекарств






О сайтеАккордыХит-парадПоискУроки ФорумыИщу песню
ПрограммыСвежачок-сПодпискаСтатьи
Яндекс.Метрика