Табулатура Radiohead | Rain Down гитара табулатуры уроки тексты песен Radiohead текст lyrics песня аккорды песни ноты нота электрогитара струна  
   А Б В Г Д Е Ж З И К Л М Н О П Р С Т У Ф Х Ч Ш Ы Э Ю Я       Разные песни
1-9 A B C D E F G H I J K L M N O P Q R S T U V W Y Z      Все исполнители in english

    



группа Radiohead, Табулатура песни Rain Down

Продолжаем грести бабос на ботах в Telegram.
Только в этот раз есть вариант автоматизировать это дело, привлекая рефералов. Вы можете заработать если »

Группа: Radiohead - другие аккорды (189),   о группе (6 статей),   диски (9),   фотографии (134)
Табулатура песни: Rain Down
Просмотров: 863
Прислал: Whipper (indiespace@narod.ru)




    

(Raiiiiin)  (doooooooowwwwwwwwwwwwnnnn)            (oooohh)
   (A)        (G#)                                (A)
e----------------------------------------------------------------
B------5----------4--------4--------4--------4----------5---------
G----6---6------5---5----5---5----5---5----5---5------6---6------
D---------------------------------------------------------------
A----------------------------------------------------------------
E--5---------4--------4--------4--------4----------5------------

  (hum low)         (lower)     (get's higher)
   (F#m)   (G#m)      (E)        (F#m)      (G#)       (A)
e------------------------------------------------------------------
B-----2--------4---------------------------------------------------
G---2---2----5---5-------1----(start half strumming and picking now)-
D----------------------2---2----------------------------------------
A-------------------------------------------------------------------
E-2--------4---------0----------------------------------------------

    (humming get's higher and higher)
  (F#m)     (G#)     (E)       (F#m)     (E)      (F#m)     (G#)
e----------------------------------------------------------------
B------------------------------------------------------------------
G------------------------------------------------------------------
D-(same picking patterns but strumming becomes more prominent)-----
A------------------------------------------------------------------
E------------------------------------------------------------------




Продолжаем грести бабос на ботах в Telegram.
Только в этот раз есть вариант автоматизировать это дело, привлекая рефералов. Вы можете заработать если »


лекарство в аптеке
список лекарств






О сайтеАккордыХит-парадПоискУроки ФорумыИщу песню
ПрограммыСвежачок-сПодпискаСтатьи
Яндекс.Метрика