Табулатура Radiohead | Yes I Am гитара табулатуры уроки тексты песен Radiohead текст lyrics песня аккорды песни ноты нота электрогитара струна  
   А Б В Г Д Е Ж З И К Л М Н О П Р С Т У Ф Х Ч Ш Ы Э Ю Я       Разные песни
1-9 A B C D E F G H I J K L M N O P Q R S T U V W Y Z      Все исполнители in english

    



группа Radiohead, Табулатура песни Yes I Am

Продолжаем грести бабос на ботах в Telegram.
Только в этот раз есть вариант автоматизировать это дело, привлекая рефералов. Вы можете заработать если »

Группа: Radiohead - другие аккорды (189),   о группе (6 статей),   диски (9),   фотографии (134)
Табулатура песни: Yes I Am
Просмотров: 1248
Прислал: Whipper (indiespace@narod.ru)




    
"Yes I Am"
Radiohead

verse:
main chord progression:
                                third time:
     E        F#       C#m                  E    F#     B      A
E--------0---------------------------------------------------------
B--------0--------2-----5-------------------------------4------2---
G--------1--------3-----6-------------------------------4------2---
D-----------------------6-------------------------------4------2---
A----2--------4---------4-------------------------------2------0---
E----0--------2----------------------------------------------------

higher part:
     E       F#        C#m
E-----------------------------------------------------------------
B--------9--------7----5--4^5^4-----------------------------------
G--------9--------6----6--------6---------------------------------
D---/9-----------(8)---6----------6----etc w/variations-----------
A---/7--------9---------------------------------------------------
E-----------------------------------------------------------------

at some point, another (distorted guitar comes in) playing something similar
to the "High and Dry" solo riff with the high E ringing out
(note: this is not accurate- listen to the recording to get the exact riff)
third time
       E       F#   C#m                    E   F#  B        A
E------0---0---0------0-------0-------0--|-0-------0-0------0-0-----
B------5---5-5-4-4-4--2-2--2--0^2-0-2-2--|-5-5-7-5-7-7--9-7-9-9-9---
G----------------------------------------|--------------------------
D----------------------------------------|--------------------------
A----------------------------------------|--------------------------
E----------------------------------------|--------------------------

Chorus

E----------------------------------------------------------------------
B----------------------------------------------------------------------
G----------------------------------------------------------------------
D---4-4-----4---------4-4-----4------7-7-7-7-7-7-7-7-6-6-6-6-6-6-6-6---
A---4-4-(4)-4-(4)-----4-4-(4)-4-(4)--7-7-7-7-7-7-7-7-6-6-6-6-6-6-6-6---
E---2-2--0--2--0----0-2-2--0--2--0---5-5-5-5-5-5-5-5-4-4-4-4-4-4-4-4--- 



    

поиск лекарств
список лекарств






О сайтеАккордыХит-парадПоискУроки ФорумыИщу песню
ПрограммыСвежачок-сПодпискаСтатьи
Яндекс.Метрика