Табулатура Король и Шут | Холодное Тело гитара табулатуры уроки тексты песен Король и Шут текст lyrics песня аккорды песни ноты нота электрогитара струна  
   А Б В Г Д Е Ж З И К Л М Н О П Р С Т У Ф Х Ч Ш Ы Э Ю Я       Разные песни
1-9 A B C D E F G H I J K L M N O P Q R S T U V W Y Z      Все исполнители in english

    



группа Король и Шут, Табулатура песни Холодное Тело

Работа в Европе для граждан РФ, Украины, СНГ

  • минимальная зарплата $500.
  • виза и контракт на полгода, возможно продление
  • проживание оплачивает работодатель
  • нужен только загранпаспорт
  • оформление 190 €
  • данное предложение - отличная возможность эмигрировать в Европу и закрепиться здесь навсегда.

  • Мы свяжемся с Вами по WhatsApp или Viber и ответим на любые вопросы.
    на нашем сайте можно почитать подробнее »

    Группа: Король и Шут - другие аккорды (277),   о группе (10 статей),   диски (9),   фотографии (68)
    Табулатура песни: Холодное Тело
    Просмотров: 4235
    Подобрал: ХОЙ! (kish_my@rambler.ru)




        
    Эту песню вступает Басист Короля и Шута,Шурик Балунов,вы между тем,зажимаете..G5..И  играете перебором до тех пор,пока не начннается
    Соло....(Перебор играется на  четырёх струнах:6-ая,5,4,3-я,4-ая)
    1|--------------------------------------------------------1-------------------------------------------------------------1-
    2|---------------------------3-------------------------------3----------------------------3-------------------------------
    3|-2-3-3-3--2-3-3-3--2-3-3-3---2-3-3-3--2-3-3-3--2-3-3-3--------2-3-3-3--2-3-3-3--2-3-3-3----2-3-3-3--2-3-3-3--2-3-3-3----
    4|------------------------------------------------------------------------------------------------------------------------
    5|------------------------------------------------------------------------------------------------------------------------
    6|------------------------------------------------------------------------------------------------------------------------
    >>>В орегинале звучит именно это вступление,его прикольно играть со Здравой ПРИМОЧКОЙ,ну и без неё игрется нормально!!!>>>
    >>>Проиграв это соло,быстро начинаете играть Аккорды!!!Бой там можно импровизировать!!!
    ОБЯЗАТЕЛЬНО ПРОСМОТРИТЕ КАК СТАВЯТСЯ АККОРДЫ,ОНИ В КАЖДОМ ПРОИГРЫШЕ ЗАЖИМАЮТСЯ ПО РАЗНОМУ!!!
    *************************************************************************
    Gm
    1|--3------
    2|--3------
    3|--3------
    4|--5------
    5|--5------
    6|--3------
    F-Надеюсь его знают все!
    Cm
    1|--3------
    2|--4------
    3|--5------
    4|--5------
    5|--3------
    6|--3------
    ПРодолжение куплета:
       A#     D5    С5     G5
    1)------------------------
    2)------------------------
    3)-3------7-----5---------
    4)-3------7-----5------3--
    5)-1------5-----3------3--
    6)---------------------1--
    Далее вставка:
       G5     A#    C5     F#5
    1)------------------------
    2)------------------------
    3)--------------5------10-
    4)-5------8-----5------10-
    5)-5------8-----3------8--
    6)-3------6---------------
    Припев:
       G5     A#    F5     G5
    1)------------------------
    2)------------------------
    3)------------------------
    4)-5------8-----3------5--
    5)-5------8-----3------5--
    6)-3------6-----1------3--
       G5     A#    C5     D5     G5
    1)-------------------------------
    2)-------------------------------
    3)--------------5------7---------
    4)-5------8-----5------7------5--
    5)-5------8-----3------5------5--
    6)-3------6-------------------3--
    Ещё один проигрыш:
       G5     F5    C5     A#     G5
    1)-------------------------------
    2)-------------------------------
    3)--------------5------3---------
    4)-5------3-----5------3------5--
    5)-5------3-----3------1------5--
    
    Узнай ВСЕ о своем друге в ВК или FB
    6)-3------1-------------------3-- ****************************************************************************** Gm F Холодное тело к воде я поднёс, Cm F И в лодку его положил. Gm F \"Плыви дорогая, - я ей вслед произнёс - Cm F Мне хватит измены и лжи. >>>Далее начинаете бить по этим аккордам,опять же,с Хорошей примочкой звучит ещё лучше чем в орегинале песни!!! A# D5 C5 G5 Я всё это долго терпел! A# D5 С5 G5 Но знаешь всему есть предел, ЕСТЬ ПРЕДЕЛ!!! Посля этих слов есть такая вставка........>>> >>>(В орегинальной песне 1997-98-го года Альбома\"Камнем по голове\" Это хорошо слышно):G5..A#..C5.. F#5....>>>>> >>>после того как сыграли последний аккорд,быстро проскальзываем медиатором по 6-ой струне,хотя в орегинале песни этого не слышно,но..>>> >>>в живых выступлениях Цвиркунов играл именно так!!С тех пор,когда в группе появилась скрипка(с 1998-го)эта песня на гитаре играется >>>по другому..>>> >>>я не буду писать Второй вариант,так как этой песя не записана на кассетных Альбомах!!! >>>Кстате,эта песня есть на На концерте \"Ели мясо мужики\",она правда в одноимённый Альбом не попала,а жаль,но вы её там можете >>>послушать,заказав эту видеокассету!!! G5 A# F5 G5 Пускай качает тело твоё вода, G5 A# C5 D5 G5 Я всё прощаю, но ты прощай НАВСЕГДА!\" >>>Далее снова немного проигрывает бас и вы вступаете то же самое соло,которое я написал выше,а затем играете аккорды!!! Gm F По мутной озёрной,холодной воде, Cm F На лодке поплыла она. Gm F Я, горем убитый, ей вслед поглядел: Cm F \"Зачем до греха довела?\" A# D5 С5 G5 \"Я всё это долго терпел! A# D5 С5 G5 Но знаешь всему есть предел, ЕСТЬ ПРЕДЕЛ!!! G5..A#..C5.. F#5....>>>Можно снова сыграть со скольжением медиатора...! G5 A# F5 G5 Пускай качает тело твоё вода, G5 A# C5 D5 G5 Я всё прощаю, но ты прощай НАВСЕГДА ! >>>Потом на зажатом G5,немного с приглушкой(в песне это хорошо слышно) играем до тех пор,пока не начинается проигрыш....>>> >>>...G5.....F5.....C5...A#...G5......A# G5.....F5.....C5...A#...G5....>>> >>>Затем идёт вот такая штука на пятой струне... 5|3-555-3-555-3-555-3-555-НЕМНОГО проигрываем G5...повторяем это ещё раз и...>>> ЕСТЬ ПРЕДЕЛ.....G5..A#..C5.. F#5.... G5 A# F5 G5 Пускай качает тело твоё вода, G5 A# C5 D5 G5 Я всё прощаю, но ты прощай НАВСЕГДА!\" И Заканчивается Аккордом G5.... Вот похоже и всё,эту песню я подобрал правильно 100% т.к.видел много раз как Цвиркуном играет её на концертах!!! ЕСЛИ ХОТИТЕ 100%-ый ,ПОДРОБНЫЙ ПОДБОР ПЕСЕН :Ели мясо мужеки,Любовь и пропеллер,Камнем по голове,Злодей и шапка,От женщин кругом голова,Паника в селе,Смерть халдея,Прыгну со скалы,Шар Голубой-ОБРАЩАЙТЕСЬ по Адресу www.kish_my@rambler.ru ЗА ПОДБОРАМИ ИЛИ МОЖЕТЕ ОСТАВИТЬ ОТЗЫВ!!...>>> Эта песня игРается Очень легко,хотя и понаписал я Слишком много!Главно во всём сначала разберитесь!И советую разбирать ещё вместе с оригеналом Этой песни!!! На некоторые песни я могу написать точный БАС....так что Пишите!!!

    лекарство в аптеке
    список лекарств

    Купить песок в краснодаре

    Щебень, Песок, отсев, гравий, грунт, кирпич

    avtoliderkuban.ru

    Ломбард в астане

    Большой выбор. Удобный поиск. Бронируйте отели онлайн в Астане

    lombardastana.com

    купить аминокислоты в Украине

    ko4ka-shop.com.ua








    О сайтеАккордыХит-парадПоискУроки ФорумыИщу песню
    ПрограммыСвежачок-сПодпискаСтатьи
    Яндекс.Метрика