Табулатура Radiohead | Pearly  (2) гитара табулатуры уроки тексты песен Radiohead текст lyrics песня аккорды песни ноты нота электрогитара струна  
   А Б В Г Д Е Ж З И К Л М Н О П Р С Т У Ф Х Ч Ш Ы Э Ю Я       Разные песни
1-9 A B C D E F G H I J K L M N O P Q R S T U V W Y Z      Все исполнители in english

    



группа Radiohead, Табулатура песни Pearly (2)

Продолжаем грести бабос на ботах в Telegram.
Только в этот раз есть вариант автоматизировать это дело, привлекая рефералов. Вы можете заработать если »

Группа: Radiohead - другие аккорды (189),   о группе (6 статей),   диски (9),   фотографии (134)
Табулатура песни: Pearly (2)
Просмотров: 1003
Прислал: Whipper (indiespace@narod.ru)




    

Intro Riff  (x2)
e--------------------------------------
B--------------------------------3---5---
G--------------------------------5---7--(quick transition)---
D---------------3-2-0------------5---7------
A--0---------0--------3-0--0--------------
E------------------------------------------
Verse1
  Am                 E                  E            Dsus2
  How d'you           get your         teeth so      pearly
e-0-------------------0-----------------0-------------0------3---5--
B-1-------------------0-----------------0-------------3------5---7---
G-2-------------------1-----------------1-------------2------5---7--
D-2-------3-2-0-------2------3-2-0------2---3-2-0-----0-------------
A-0-------------3-0---2------------3-0--2---------3-0---------------
E---------------------0-----------------0--------------------------
  Am                 E                   E              Dsus2
  Dew drop          dentures         white washed      fences
e-0-------------------0-----------------0-------------0------3---5--
B-1-------------------0-----------------0-------------3------5---7---
G-2-------------------1-----------------1-------------2------5---7--
D-2-------3-2-0-------2------3-2-0------2---3-2-0-----0-------------
A-0-------------3-0---2------------3-0--2---------3-0---------------
E---------------------0-----------------0--------------------------
Chorus
   Fmaj7               C               Fmaj7            E
She runs from    the  third world     cryinggggg
e---0-------------------0-----------------0--------------0-----3---5-
B---1-------------------1-----------------1--------------0-----5---7-
G---2-------------------0-----------------2--------------1-----5---7-
D---3-------3-2-0-------2------3-2-0------3---3-2-0------2----------
A---3-------------3-0---3------------3-0--3---------3-0--2-----------
E--------------------------------------------------------0--------
Jonny over the Chorus plays
e-12-----------12------12---------------15---12---------------------
B---13--13--13------13-----13--10-13------------13------------------
G----------------------------------------------------12--------------
D--------------------------------------------------------------------
e------------------------------------------------------------------
B-10-13-10-13-13-13-10-13-13-13-------------------------------------
G----------------------------------13--16--13-16-16-13-16-16-16-16----
D------------------------------------------------------------------
Verse2  (same chords as Verse 1)
Vanilla     (feel it crawl to me)
Milkshakes     (crawl back again)

Продолжаем грести бабос на ботах в Telegram.
Только в этот раз есть вариант автоматизировать это дело, привлекая рефералов. Вы можете заработать если »

>From Hard Rock (whatever you say) Cafes (it won't go away) That's where (I feel it crawl to me) She got her (crawls back again) Sweet tooth (it won't go away) For white boys (whatever you say) Chorus Fmaj7 C Fmaj7 E She runs from the third world cryinggggg e---0-------------------0-----------------0--------------0-----3---5- B---1-------------------1-----------------1--------------0-----5---7- G---2-------------------0-----------------2--------------1-----5---7- D---3-------3-2-0-------2------3-2-0------3---3-2-0------2---------- A---3-------------3-0---3------------3-0--3---------3-0--2----------- E--------------------------------------------------------0-------- Jonny over the Chorus plays e-12-----------12------12---------------15---12--------------------- B---13--13--13------13-----13--10-13------------13------------------ G----------------------------------------------------12-------------- D-------------------------------------------------------------------- e------------------------------------------------------------------ B-10-13-10-13-13-13-10-13-13-13------------------------------------- G----------------------------------13--16--13-16-16-13-16-16-16-16---- D------------------------------------------------------------------ picking part (w/ the high voice): don't use me Am C E (x4) e-------0---------------0----------------0---------------0-------- B---------1---------------1-----------------0----------------0------ G-----------2----------------0----------------1-----------------1---- D----2----------------2--------------------------------------------- A-0----------------3------------------2--------------2-------------- E----------------------------------0--------------0---------------- Outro Am C E e--------12--12---12--------12--12--12------12----12----12-------- B-----15---15--15---13-15-15--15--12--15-15----10----9----15------ G--14----------------------------------------------------- D--------------------------------------------------------fade out A---------------------------------------------------------- E----------------------------------------------------------

найти лекарство
список лекарств






О сайтеАккордыХит-парадПоискУроки ФорумыИщу песню
ПрограммыСвежачок-сПодпискаСтатьи
Яндекс.Метрика