Басовая табулатура Radiohead | Street Spirit(fade Out) гитара табулатуры уроки тексты песен Radiohead текст lyrics песня аккорды песни ноты нота электрогитара струна  
   А Б В Г Д Е Ж З И К Л М Н О П Р С Т У Ф Х Ч Ш Ы Э Ю Я       Разные песни
1-9 A B C D E F G H I J K L M N O P Q R S T U V W Y Z      Все исполнители in english

    



группа Radiohead, Басовая табулатура песни Street Spirit(fade Out)

Продолжаем грести бабос на ботах в Telegram.
Только в этот раз есть вариант автоматизировать это дело, привлекая рефералов. Вы можете заработать если »

Группа: Radiohead - другие аккорды (189),   о группе (6 статей),   диски (9),   фотографии (134)
Басовая табулатура песни: Street Spirit(fade Out)
Просмотров: 1083
Прислал: Whipper (indiespace@narod.ru)




    
 "..and faaaaade ooooout agaaaaaaaaain... and faaaaaaade out..."
G|--------------------------------------------------------------|
D|--------------------------------------------------------------|
A|-------3-------------------------------------3----------------|
E|---------------0---------5-----------------------------0------|
 
 "this machine will   will not communicate  these thoughts  and the strain i am under"
G|--------------------------------------------------------------------------------------|
D|--------------------------------------------------------------------------------------|
A|--------------------------------------------------------------------------------------|
E|-5----------------5------------------------------5------------------------------5-----|
 
 "be a world child, form a circle  before we all    go under  "
G|-------------------------------------------------------------------------|
D|-------------------------------------------------------------------------|
A|-------------------------------------------------------------------------|
E|-0---------------------------------0------------------5------------5-----|
 
 "..and faaaaade ooooout agaaaaaaaaaaaaaaain... and faaaaaaade ooooout again..."
G|-----------------------------------------------------------------------------------|
D|-----------------------------------------------------------------------------------|
A|-------3-------------------------------------------3-------------------------------|
E|---------------0---------5----------5------------------------0---------5--------5--|
 
 "ahhhhhhhhhhhhhhh ahhhhhhhhhhhhhh ahhhhhhhhhh......."
G|-----------------------------------------------------------------|
D|-----------------------------------------------------------------|
A|-3-3-3-3-3-3-3-3-7-7-7-7-7-7-7-7---------------------------------|
E|---------------------------------5-5-5-5-5-5-5-5-5-5-5-5-5-5-5-5-| (*)
 
 "cracked eggs dead birds scream as they fight for life  i can see death can see its beady eyes"
G|--------------------------------------------------------------------------------------------|
D|--------------------------------------------------------------------------------------------|
A|--------------------------------------------------------------------------------------------|
E|--5-----------------------------------------------------------------------------------------|
 
 "All these things into positions   All these things one day swallow whole"
G|--------------------------------------------------------------------------------------------|
D|--------------------------------------------------------------------------------------------|
A|--------------------------------------------------------------------------------------------|
E|-0--------------------------------0------------------------------------------5--------------|
 
 "and faaaaaaaaade ooooooooooooout agaaaaaaaaaaaaaaaaaaaaaaaaaaain"

Продолжаем грести бабос на ботах в Telegram.
Только в этот раз есть вариант автоматизировать это дело, привлекая рефералов. Вы можете заработать если »

G|-----------------------------------------------------------------| D|-----------------------------------------------------------------| A|-3-3-3-3-3-3-3-3-7-7-7-7-7-7-7-7---------------------------------| E|---------------------------------5-5-5-5-5-5-5-5-5-5-5-5-5-5-5-5-| reapeat until "immeeeeerse your soooooooooul in looooooooooooooooooooooooooove" G|-----------------------------------------------------------------| D|-----------------------------------------------------------------| A|-3-3-3-3-3-3-3-3-7-7-7-7-7-7-7-7---------------------------------| E|---------------------------------5-5-5-5-5-5-5-5-5-5-5-5-5-5-5-5-| "immeeeeerse your soooooooooul in love" G|-----------------------------------------------------------------| D|-----------------------------------------------------------------| A|-3-3-3-3-3-3-3-3-7-7-7-7-7-7-7-7---------------------------------| E|---------------------------------5-------------------------------| (*) = probabily Colin playes the chorus differently but this one sounds great too, try to play E|-5-5-5-5-5-5-5-3-5-5-5-5-5-5-5-3-| to make it more interesting. verse (a) ---------------------------------------------------- ---------------------------------------------------- ---------------------------------------------------- ----5--------5-------(0)-------5----------5--------- pre chorus (e) ----------------------------(9)--------------------- ---------------------------------------------------- ----7--------7--------7---------7---------7--------- ---------------------------------------------------- chorus (c) (e) (a) ---------------------------------------------------- ---------------------------------------------------- ---3------3-------7------7------7------------------- ---------------------------------------5------5-----

найти лекарство
список лекарств






О сайтеАккордыХит-парадПоискУроки ФорумыИщу песню
ПрограммыСвежачок-сПодпискаСтатьи
Яндекс.Метрика