Басовая табулатура Radiohead | The Bends гитара табулатуры уроки тексты песен Radiohead текст lyrics песня аккорды песни ноты нота электрогитара струна  
   А Б В Г Д Е Ж З И К Л М Н О П Р С Т У Ф Х Ч Ш Ы Э Ю Я       Разные песни
1-9 A B C D E F G H I J K L M N O P Q R S T U V W Y Z      Все исполнители in english

    



группа Radiohead, Басовая табулатура песни The Bends

Работа в Европе для граждан РФ, Украины, СНГ

  • минимальная зарплата $500.
  • виза и контракт на полгода, возможно продление
  • проживание оплачивает работодатель
  • нужен только загранпаспорт
  • оформление 190 €
  • данное предложение - отличная возможность эмигрировать в Европу и закрепиться здесь навсегда.

  • Мы свяжемся с Вами по WhatsApp или Viber и ответим на любые вопросы.
    на нашем сайте можно почитать подробнее »

    Группа: Radiohead - другие аккорды (189),   о группе (6 статей),   диски (9),   фотографии (134)
    Басовая табулатура песни: The Bends
    Просмотров: 1017
    Прислал: Whipper (indiespace@narod.ru)




        
    Intro (also Chorus):
    G|-------------------------------|
    D|-------------------------------|
    A|-5-5-5-3-2-3---2--3--2-3-2-----|
    E|-------------3-------------3-0-|
    G|----------------------0-2-0---|
    D|--------------------2-------2-|
    A|-5-5-5-3-2-3---2--3-----------|
    E|-------------3----------------|
    G|------------------------------|
    D|------------------------------|
    A|-5-5-5-3-2-3---2--3-2-3-2-----|
    E|-------------3------------3-0-|
    G|-----/2-0----------/4---------------|
    D|----------4-------------------------|
    A|-5-5--------5--3-------3--2-3-2-----|
    E|-----------------3--------------3-0-|
    Verses:
    G|-----------------------------|
    D|-----------------------------|
    A|-------------2-3--3---3--3---|
    E|-0--0-2-3--3--------3------3-|
    G|-------------------------------------|
    D|-------------------------------------|
    A|---------------3--3-2-3-3--2-3-2-----|
    E|-0--0-5-3--3-0-------------------3-0-|
    Guitar fill part:
    G|--------------------------3-0-3-0-7-5-4---|
    D|------------------------3---------------5-|
    A|------------------3-3-5-------------------|
    E|-5-5-0-3-4-5-3-0--------------------------|
    Verses:
    G|---------------------------------------------------|
    D|-2----2------4-5----5-5--------------------------5-|
    A|----2---2---------5------5-3----3-3----3-5-7-7-7---|
    E|----------0-------------------3------3-------------|
    G|-----------------------------------------------------|
    D|-2----2------5h7p5----5-/7-5-------------------------|
    A|----2---2-----------7--------3----3-3----3-2-3-2-----|
    E|----------0---------------------3------3---------3-0-|
    Chorus:
    G|------------------------0-2-0---|
    D|----------------------2-------2-|
    A|-5-5-5-3-2---3---2--3-----------|
    E|-----------3---3----------------|
    G|-------/2-0---------/4--------------|
    D|------------4-----------------------|
    A|-5-5-5--------5-3-------3-2-3-2-----|
    E|------------------3-------------3-0-|
    Bridge One:
    G|------------------------------------|
    D|------------------------------------|
    A|-0-0--0-0-0--0-0--0-0-0-------------|
    E|-------------------------0-0--0-0-0-|
    G|--------------------------|
    D|--------------------------|
    
    Узнай ВСЕ о своем друге в ВК или FB
    A|-0-0--0-0-0--0-0--0-0-0-2-| E|--------------------------| G|---------| D|---------| <-- eight measures of this A|---------| E|-0-0-0-0-| Verses: G|---------------------------------------------5-5-3-----| D|---------------------------------------------------5---| A|---------------------------3--0-3-3----3-5-3-----------| E|-0--0-0--3h5p3--0h3p0h3--0-----------3---------------0-| G|-----------------------------------------------------| D|-2----2------5h7p5----5-/7-5-------------------------| A|----2---2-----------7--------3----3-3----3-2-3-2-----| E|----------0---------------------3------3---------3-0-| Chorus: G|----------------------0-2-0---| D|--------------------2-------2-| A|-5-5-5-3-2-3---2--3-----------| E|-------------3----------------| G|-------/2-0---------/4--------------| D|------------4-----------------------| A|-5-5-5--------5-3-------3-2-3-2-----| E|------------------3-------------3-0-| Bridge Two: G|------------------------------------| D|------------------------------------| A|-0-0--0-0-0--0-0--0-0-0-------------| E|-------------------------0-0--0-0-0-| G|--------------------------| D|--------------------------| A|-0-0--0-0-0--0-0--0-0-0-2-| E|--------------------------| G|---------| D|---------| A|-3-3-3-3-| <-- five measures of this E|---------| G|-------------------------| D|---------2-2-2-2-4-4-4-4-| A|-5-5-5-5-----------------| E|-------------------------| Cool guitar part (repeat four times, there are slight variations): G|--------------------------------------------| D|-5-5-5--5--5-5-----4---5-5-5--5--5-5--4h5p4-| A|---------------3-5---5----------------------| E|--------------------------------------------| G|-------------------------------------------| D|-2-2-2----2---2-0h2-5-2-2-2----2---2---0h2-| A|-------------------------------------3-----| E|--------0---0----------------0---0---------| Ending slow part: G|-------| D|-------| A|-----3-| E|-0-3---|

    искать в аптеке
    список лекарств






    О сайтеАккордыХит-парадПоискУроки ФорумыИщу песню
    ПрограммыСвежачок-сПодпискаСтатьи
    Яндекс.Метрика