Басовая табулатура Radiohead | Just гитара табулатуры уроки тексты песен Radiohead текст lyrics песня аккорды песни ноты нота электрогитара струна  
   А Б В Г Д Е Ж З И К Л М Н О П Р С Т У Ф Х Ч Ш Ы Э Ю Я       Разные песни
1-9 A B C D E F G H I J K L M N O P Q R S T U V W Y Z      Все исполнители in english

    



группа Radiohead, Басовая табулатура песни Just

Работа в Европе для граждан РФ, Украины, СНГ

  • минимальная зарплата $500.
  • виза и контракт на полгода, возможно продление
  • проживание оплачивает работодатель
  • нужен только загранпаспорт
  • оформление 190 €
  • данное предложение - отличная возможность эмигрировать в Европу и закрепиться здесь навсегда.

  • Мы свяжемся с Вами по WhatsApp или Viber и ответим на любые вопросы.
    на нашем сайте можно почитать подробнее »

    Группа: Radiohead - другие аккорды (189),   о группе (6 статей),   диски (9),   фотографии (134)
    Басовая табулатура песни: Just
    Просмотров: 1381
    Прислал: Whipper (indiespace@narod.ru)




        
    INTRO:
    G----------------------------------------
    D---------------------------------3------
    A--3--3-3-3--5--6--6-6-6----5-3-5--------
    E---------------------------------------5
       1  + a 2  +  3  + a 4    1 + 2 + 3   4
    G----------------------------------------
    D----------------------------------------
    A--3--3-3-3--5--6--6-6-6----5-3----------
    E-------------------------------3-1-----1
       1  + a 2  +  3  + a 4    1 + 2 + 3   4
    VERSE:
    G--------------------------------------------------------
    D--------------------------------------------------------
    A-------------------------------------------------10-12-
    E-5----5----5-5-5---4----4----4-4-4----/11-0-11-13-------
      1    2    3 + 4   1    2    3 + 4     1  +  2 +3 +  4
    
    G--------------------------------------------------------
    D--------------------------------------------------------
    A-------------------------------------6-8-6--------------
    E-5----5----5-5-5---4----4----4-4-4----------6--8-10----
      1    2    3 + 4   1    2    3 + 4   1 + 2  +3 +  4
    
    BRIDGE:
    G----------------------------------------------------
    D----------------------------------------------------
    A----------------------------------------3-----------
    E-5------5-7-8--7--5-------------4---4-6-----6---4--/
      1      2 t l3 +  4             1   2 t l3  +   4
               r e
               p t
    
    G----------------------------
    D-----0-------4--------------
    A-10--------------4----------
    E--------3-----------2--0--1-
      1   +  2    3   +  4  +  1
    CHORUS:
    		  (play this twice)
    G---------------|.-------------------------------------------------.|
    D---------------|.-------------------------------------------------.|
    A---------------|-3--3-3-3--3-----------------------------------0h1-|
    E-rest rest rest|-------------2--2-2-2--2--1--1-1-1---1-0-1--1h2----|
       2   3     4    1  + a 2  + 3  + a 4  +  1  + a 2   3 e +  4 e+ a
    Then play intro riff again
    Then play verse again
    Then play Bridge again
    Then play chorus again
    Then play intro riff again (but last F is played an octave higher
    at A string Fret 8).
    Then play this:
    INTERLUDE:
    G--------------------------------------------------
    D--------------------------------------------------
    A-----7--7-7-7---5--5-5-5---4--4-4-4--/--10---12--
    
    Узнай ВСЕ о своем друге в ВК или FB
    E-------------------------------------------------- 1 + a 2 3 + a 4 1 + a 2 3 4 G------------------------------------------------------------- D------------------------------------------------------------- A-----7--7-7-7---5--5-5-5---4--4-4-4--/--10-10-10-10-10-10-10 E------------------------------------------------------------- 1 + a 2 3 + a 4 1 + a 2 3 e + a 4 e + G---------------------------------------------------------- D---------------------------------------------------------- A-------------------------------------6-8-6---------------- E-5----5----5-5-5---4----4----4-4-4----------6--8-10------ 1 2 3 + 4 1 2 3 + 4 1 + 2 +3 + 4 G------------------------------------------------------ D------------------------------------------------------ A------------------------------------------------------ E-5----5----5-5-5---4----4----4-4-4---3-3-3-3-2-2-2-2-1 1 2 3 + 4 1 2 3 + 4 1 + 2 + 3 + 4 + 1 Then play chorus twice Then play Intro riff 2 times Then this: ENDING: G--------------------------------------------------- D--------------------------------------------------- A---3--3-3-3-1-1-1-1-1-1-1--0-0-0--1/--3h6--3h6--3h6 E--------------------------------------------------- 1 2 + 3 e + a 4 e + a 1 + 2 + 3 e + a4 e + G--------------------------------------------------- D--------------------------------------5-3-----5-3-- A--1h3--3-3-3-1-1-1-1-1-1-1--0-0-0--1/-----6-3-----6 E--------------------------------------------------- 1 e 2 + 3 e + a 4 e + a 1 + 2 + 3 e + a 4 e + G--------------------------------------------------- D--------------------------------------------------- A--1h3--3-3-3-1-1-1-1-1-1-1--0-0-0--1/--3h6--3h6--3h6 E--------------------------------------------------- 1 e 2 + 3 e + a 4 e + a 1 + 2 + 3 e + a4 e + G--------------------------------------------------- D--------------------------------------------------- A---3--3-3-3-1-1-1-1-1-1-1-/-8------3/------8----- E--------------------------------------------------- 1 2 + 3 e + a 4 e + a 1 + 2 + 3 e + a4 e + G--------------------------------------------------- D--------------------------------------------------- A--1h3--3-3-3-1-1-1-1-1-1-1--0-0-0--1/--3h6--3h6--3h6 E--------------------------------------------------- 1 e 2 + 3 e + a 4 e + a 1 + 2 + 3 e + a4 e + G--------------------------------------------------- D--------------------------------------------------- A--1h3--3-3-3-1-1-1-1-1-1-1--0-0-0--/--8----------- E--------------------------------------------------- 1 e 2 + 3 e + a 4 e + a 1 + 2 + 3 e + a4 e

    искать в аптеке
    список лекарств






    О сайтеАккордыХит-парадПоискУроки ФорумыИщу песню
    ПрограммыСвежачок-сПодпискаСтатьи
    Яндекс.Метрика