Табулатура Radiohead | Pop Is Dead гитара табулатуры уроки тексты песен Radiohead текст lyrics песня аккорды песни ноты нота электрогитара струна  
   А Б В Г Д Е Ж З И К Л М Н О П Р С Т У Ф Х Ч Ш Ы Э Ю Я       Разные песни
1-9 A B C D E F G H I J K L M N O P Q R S T U V W Y Z      Все исполнители in english

    



группа Radiohead, Табулатура песни Pop Is Dead

Продолжаем грести бабос на ботах в Telegram.
Только в этот раз есть вариант автоматизировать это дело, привлекая рефералов. Вы можете заработать если »

Группа: Radiohead - другие аккорды (189),   о группе (6 статей),   диски (9),   фотографии (134)
Табулатура песни: Pop Is Dead
Просмотров: 2129
Прислал: Whipper (indiespace@narod.ru)




    
_1st Part_______________________________________________________________________________________________________
Intro (Polite Guitar)
    A   G#  G   F#    
E---5---4---3---2---|
B---5---4---3---2---|
G---6---5---4---3---|
D---7---6---5---4---|
A---7---6---5---4---|
E-------------------|
                      
1st verse (Distortion Guitar)            
   Bm                G#          
E--x---x---x---x-----x---x---x--------x---x---x---x---x-----------|
B--x---x---x---x-----x---x---x--------x---x---x---x---x-----------|
G--4---4---4---4-----x---x---x--------4---4---4---4---x-----------|
D--4---4---4---4-----6---6---6--------4---4---4---4---6-----------|
A--2---2---2---2-----6---6---6--------2---2---2---2---6-------7---|
E----------------(2)-4---4---4--5-5-2-----------------4-0-2-5-----|
                               
Intro (Polite Guitar)
    A   G#  G   F#    
E---5---4---3---2---|
B---5---4---3---2---|
G---6---5---4---3---|
D---7---6---5---4---|
A---7---6---5---4---|
E-------------------|
2st verse (Distortion Guitar)            
   Bm                G#          
E--x---x---x---x-----x---x---x--------x---x---x---x------x-------------------------------------------------|
B--x---x---x---x-----x---x---x--------x---x---x---x------x-------------------------------------------------|
G--4---4---4---4-----x---x---x--------4---4---4---4------x-------------------------------------------------|
D--4---4---4---4-----6---6---6--------4---4---4---4------6-------------------------------------------------|
A--2---2---2---2-----6---6---6--------2---2---2---2------6-----------------------3-3(message)-2(for)-0(us)-|
E----------------(2)-4---4---4--5-5-2---------------(2)--4-0(he)-2(left)-5(this)---------------------------|
                              
Enter JOHNNY's riff:
                       
E----------------------------------------------------------------------------------------------|
B--10-9-8------------------12-13-14-------------------------------12-13-14 (GO ON WITH THIS ---|
G---------9-8-7---------------------14-13-12------------------------------ NOTE AND PULL    ---|
D----------------9-8-7-----------------------14-13-12--------------------- THE STRING OVER) ---|
A----------------------8------------------------------14-13-12---------------------------------|
E--------------------------------------------------------------13------------------------------|

_2nd Part_________________________________________________________________________________________________________________________________________
Intro (Polite Guitar)               (Distortion Guitar)
    A   G#  G   F#                      A   G#  G   F#
E---5---4---3---2---|               E-------------------|
B---5---4---3---2---| at the same   B-------------------|
G---6---5---4---3---| time, another G---6---5---4---3---|
D---7---6---5---4---| guitar        D---7---6---5---4---|
A---7---6---5---4---| play so:      A---7---6---5---4---|
E-------------------|               E---5---4---3---2---|
1st verse (Distortion Guitar)            
   Bm                G#          
E--x---x---x---x-----x---x---x--------x---x---x---x---x-----------|
B--x---x---x---x-----x---x---x--------x---x---x---x---x-----------|
G--4---4---4---4-----x---x---x--------4---4---4---4---x-----------|
D--4---4---4---4-----6---6---6--------4---4---4---4---6-----------|
A--2---2---2---2-----6---6---6--------2---2---2---2---6-------7---|
E----------------(2)-4---4---4--5-5-2-----------------4-0-2-5-----|
                              
intro 
Intro (Polite Guitar)
    A   G#  G   F#    
E---5---4---3---2---|
B---5---4---3---2---|
G---6---5---4---3---|
D---7---6---5---4---|

Продолжаем грести бабос на ботах в Telegram.
Только в этот раз есть вариант автоматизировать это дело, привлекая рефералов. Вы можете заработать если »

A---7---6---5---4---| E-------------------| 2st verse (Distortion Guitar) Bm G# E--x---x---x---x-----x---x---x--------x---x---x---x------x------------------------------------------------| B--x---x---x---x-----x---x---x--------x---x---x---x------x------------------------------------------------| G--4---4---4---4-----x---x---x--------4---4---4---4------x------------------------------------------------| D--4---4---4---4-----6---6---6--------4---4---4---4------6------------------------------------------------| A--2---2---2---2-----6---6---6--------2---2---2---2------6-----------------------3-3(message)-2(for)-0(us)| E----------------(2)-4---4---4--5-5-2---------------(2)--4-0(he)-2(left)-5(this)--------------------------| Enter JOHNNY's riff: E--------------------------------------------------------------------------------------------------------------------------------------------------------------------------------| B--10-9-8------------------12-13-14---------------------------------12-13-14---------------------------------12-13-14-------------------------------12-13-14 (GO ON WITH THIS ---| G---------9-8-7---------------------14-13-12---------------------------------14-13-12---------------------------------14-13-12------------------------------ NOTE AND BEND ---| D----------------9-8-7-----------------------14-13-12---------------------------------14-13-12---------------------------------14-13-12--------------------- THE STRING) ---| A----------------------8------------------------------14-13-12---------------------------------14-13-12---------------------------------14-13-12---------------------------------| E--------------------------------------------------------------13---------------------------------------13---------------------------------------13------------------------------| (Light Distortion Guitar) The ED's Guitar start E---13-10-12-10----13-10-12-10----13-10-12-10----13-10-12-10----13-10-12-10----13-10-----------------------------| right now with this B----------------------------------------------------------------------------------------------------------------| riff. G----------------------------------------------------------------------------------------------------------------| NOTE:You got to slide D----------------------------------------------------------------------------------------------------------------| from a note A----------------------------------------------------------------------------------------------------------------| to the other E----------------------------------------------------------------------------------------------------------------| _3rd Part____________________________________________________________________________________________________________________________________________________________________________ When THOM sings for the last time: <> play so: JOHNNY's Guitar NOTE:You got to slide from a note to the other in the 1st part. /=vibrato E---20-17-19-17---20-17-19-17---20-17-19-17---20-17-19-17--------------------------------------------------------------------------------| B----------------------------------------------------------------------------------------------------------------------------------------| G----------------------------------------------------------------------13/-14-------------13/-14-------------13/-14-------------13/-14---| D-------------------------------------------------------------14----14-----------14----14-----------14----14-----------14----14----------| A----------------------------------------------------------------17-----------------17-----------------17-----------------17-------------| E----------------------------------------------------------------------------------------------------------------------------------------| ED's guitar (Light Distortion/Very Strong Reverb Guitar) E---------------------------------------------------------10-12-10/-----------10-12-10/----------10-12-10/----------10-12-10/------------| B----------------------------------------------------------------------------------------------------------------------------------------| G----------------------------------------------------------------------------------------------------------------------------------------| D----------------------------------------------------------------------------------------------------------------------------------------| A----------------------------------------------------------------------------------------------------------------------------------------| E---5/--8/--10/--11/-----5/--8/--10/--11/-12/--------------------------------------------------------------------------------------------| Enter JOHNNY's riff: E----------------------------------------------------------------------------------------------------------------------------------------------------------| B--12-13-14---------------------------------12-13-14---------------------------------12-13-14----------------------------------13----13 (Finish with few --| G-----------14-13-12---------------------------------14-13-12---------------------------------14-13-12----------------------14----14--- noises around --| D--------------------14-13-12---------------------------------14-13-12---------------------------------14-13-12------------------------ these two notes)--| A-----------------------------14-13-12---------------------------------14-13-12---------------------------------14-13-12-----------------------------------| E--------------------------------------13---------------------------------------13---------------------------------------13--------------------------------| ---THE END--- _____________________________________________________________________________________________________________________________________________________________________________ LYRICS: Oh no, pop is dead, long live pop It died an ugly death by back-catalogue And now you know it gets you nowhere And now you know, you realize Oh no, pop is dead, it just gave up We raised the dead, but they won't stand up. And radio has salmonella And now you know you're gonna die So what pop is dead, it's no great loss, So many facelifts, his face flew off. The emperor has no clothes on, And his skin is peeling of Oh no, pop is dead, long live pop One final line of coke to jack him off He left this message for us... He's dead ! He's dead ! He's dead !

найти лекарство
список лекарств






О сайтеАккордыХит-парадПоискУроки ФорумыИщу песню
ПрограммыСвежачок-сПодпискаСтатьи
Яндекс.Метрика