Табулатура Radiohead | Hunting Bears гитара табулатуры уроки тексты песен Radiohead текст lyrics песня аккорды песни ноты нота электрогитара струна  
   А Б В Г Д Е Ж З И К Л М Н О П Р С Т У Ф Х Ч Ш Ы Э Ю Я       Разные песни
1-9 A B C D E F G H I J K L M N O P Q R S T U V W Y Z      Все исполнители in english

    



группа Radiohead, Табулатура песни Hunting Bears

Продолжаем грести бабос на ботах в Telegram.
Только в этот раз есть вариант автоматизировать это дело, привлекая рефералов. Вы можете заработать если »

Группа: Radiohead - другие аккорды (189),   о группе (6 статей),   диски (9),   фотографии (134)
Табулатура песни: Hunting Bears
Просмотров: 1175
Прислал: Whipper (indiespace@narod.ru)




     A
nice instrumental.  Try fiddling with the slides until you get the right
sound. Normal tuning.
--------------------------------|---------------------------------------------
--------------------------------|---------------------------------------------
---0h2----/7--------------------|---0h2----/7--5-----2----------------------
-0-----0------------------------|-0-----0-------------0-----------------------
--------------------------------|---------------------------------------------
--------------------------------|---------------------------------------------
--------------------------------|---------------------------------------------
--------------------------------|---------------------------------------------
---0h2----/7--------------------|---0h2----/7--5-----2----------------------
-0-----0------------------------|-0-----0-------------0-----------------------
--------------------------------|---------------------------------------------
--------------------------------|---------------------------------------------
---------------------|----------------------|---------------------------------
--------10-----------|-------10-------------|----------------10--8------------
-9-10----------------|----9-----------------|-7-7h9h10-10---------------------
---------------------|-12-------------------|---------------------------------

Продолжаем грести бабос на ботах в Telegram.
Только в этот раз есть вариант автоматизировать это дело, привлекая рефералов. Вы можете заработать если »

---------------------|----------------------|--------------------------------- ---------------------|----------------------|--------------------------------- ---------------------|-------------------------------------------------------- -------10------------|-------10----------------------------------------------- ---10----------------|---9---------------------------------------------------- -0-------------------|-0---------------0-------------------------------------- ---------------------|-------------------------------------------------------- ---------------------|-------------------------------------------------------- Repeat the entire sequence once, then end with this. --------------------------------| --------------------------------| ---0h2----/7--------------------| -0-----0------------------------| --------------------------------| --------------------------------|

найти лекарство
список лекарств






О сайтеАккордыХит-парадПоискУроки ФорумыИщу песню
ПрограммыСвежачок-сПодпискаСтатьи
Яндекс.Метрика