Табулатура Radiohead | I Might Be Wrong  (2) гитара табулатуры уроки тексты песен Radiohead текст lyrics песня аккорды песни ноты нота электрогитара струна  
   А Б В Г Д Е Ж З И К Л М Н О П Р С Т У Ф Х Ч Ш Ы Э Ю Я       Разные песни
1-9 A B C D E F G H I J K L M N O P Q R S T U V W Y Z      Все исполнители in english

    



группа Radiohead, Табулатура песни I Might Be Wrong (2)

Продолжаем грести бабос на ботах в Telegram.
Только в этот раз есть вариант автоматизировать это дело, привлекая рефералов. Вы можете заработать если »

Группа: Radiohead - другие аккорды (189),   о группе (6 статей),   диски (9),   фотографии (134)
Табулатура песни: I Might Be Wrong (2)
Просмотров: 1243
Прислал: Whipper (indiespace@narod.ru)




    
Dropped D Tuning , 4/4 time

Main Riff
e |------------------------------------|
B |------------------------------------|
G |------------------------------------|
D |---0----0-----0---0-----------------|
A |------------------------------------|
D |-0---3b5-3------3-------------------|
You could just slide up to the F instead of bending. I have never 
seen them play this song live, and I can't really tell how they 
do it with the quality of my version of the song.
Main Riff variations:
e |------------------------------------|
B |------------------------------------|
G |-------------0--2-------------------|
D |---0----0---------------------------|
A |------------------------------------|
D |-0---3b5-3--------------------------|
e |------------------------------------|
B |--------------1---------------------|
G |-----------------2------------------|
D |---0----0---------------------------|
A |------------------------------------|
D |-0---3b5-3--------------------------|

Chorus, if you can call it that:
"Let's go down the waterfall..."
e |------------------------------------------------------
B |------------------------------------------------------
G |----3----2-----5-------------------------------------
D |----------------------------0-----0---0---------------
A |-1-----0----3----------------------------------------
D |-----------------------0--5---5b7---5---3--0--5--/7---
"Have ourselves a good time..."
e ----------------------------------------------------------|
B ----------------------------------------------------------|
G ----------------------------------------------------------|
D ----15-----14----10--------0-----0---0--------0-----0---0-|
A ----------------------------------------------------------|

Продолжаем грести бабос на ботах в Telegram.
Только в этот раз есть вариант автоматизировать это дело, привлекая рефералов. Вы можете заработать если »

D /12-----10-----7------0--5---5b7---5-----0--5---5b7---5---| The coolest breakdown Radiohead has ever written: Dm C A#maj7 e |--------------------------------------------- B |-------6------------6--------5----------3---- G |-----7---7------------7--------5------2------ D |---7--------7-----7--------5--------3-------- A |-5--------------5--------3--------1---------- D |--------------------------------------------- Gm e --------------------------------------------- B -----2--------------------------------------- G -------3------2-0---------3-------------3---- D ---3--------3-----------5---5---------5---5-- A -1--------0-----------5-------------5-------- D -------------------/5-----------0-5---------- Dm C A#maj7 e --------------------------------------------- B ---------6-------6---------5----------------- G -------7-7---------7---------5--------2------ D -----7---------7---------5--------3-3-------- A ---5---------5---------3--------1------------ D -0------------------------------------------- e ----------------------------------------------------------------| B ----------------1-----------------------------------------------| G -------2----------2---------------------------------------------| D -----3---3----3------------0-----0---0---------0-----0---0------| A -0-1--------0---------------------------------------------------| D ----------------------0--5---5b7---5----3-0--5---5b7---5----5-0-|

лекарство в аптеке
список лекарств






О сайтеАккордыХит-парадПоискУроки ФорумыИщу песню
ПрограммыСвежачок-сПодпискаСтатьи
Яндекс.Метрика