Басовая табулатура Radiohead | How To Disappear Completely гитара табулатуры уроки тексты песен Radiohead текст lyrics песня аккорды песни ноты нота электрогитара струна  
   А Б В Г Д Е Ж З И К Л М Н О П Р С Т У Ф Х Ч Ш Ы Э Ю Я       Разные песни
1-9 A B C D E F G H I J K L M N O P Q R S T U V W Y Z      Все исполнители in english

    



группа Radiohead, Басовая табулатура песни How To Disappear Completely

Продолжаем грести бабос на ботах в Telegram.
Только в этот раз есть вариант автоматизировать это дело, привлекая рефералов. Вы можете заработать если »

Группа: Radiohead - другие аккорды (189),   о группе (6 статей),   диски (9),   фотографии (134)
Басовая табулатура песни: How To Disappear Completely
Просмотров: 924
Прислал: Whipper (indiespace@narod.ru)




    
This part (left) repeats for most of the song, sometimes dropping
an octave lower (right).
G------------------------9---|----------------------------------
D--11--7--9--------7--9------|------------------------2---------
A------------7--9------------|---4--0--2--------0--2------------
E----------------------------|------------0--2------------------

There are only a couple variations, one of them being this
(and its equivalent on the lower octave... figure it out):
G---------------------11-9--11-9------------------------9-------
D--11--7--9--------7--------------11--7--9--------7--9----------
A------------7--9---------------------------7--9----------------
E---------------------------------------------------------------

Продолжаем грести бабос на ботах в Telegram.
Только в этот раз есть вариант автоматизировать это дело, привлекая рефералов. Вы можете заработать если »

Then in a couple parts of the song, like after Thom sings "Yeah, it's gone" and at the end of the song, you just play the bit on the left there, and the part on the right gets thrown in a couple times too. G-----------------------------|--------------------------------- D-----------------------------|---------------7-6--------------- A---7-9-9-9-9-9-7-9-9-9-9-9---|---7-7-7-7-7-7-----7---(etc.)---- E-----------------------------|---------------------------------

поиск лекарств
список лекарств






О сайтеАккордыХит-парадПоискУроки ФорумыИщу песню
ПрограммыСвежачок-сПодпискаСтатьи
Яндекс.Метрика