Аккорды Radiohead | Optimistic гитара табулатуры уроки тексты песен Radiohead текст lyrics песня аккорды песни ноты нота электрогитара струна  
   А Б В Г Д Е Ж З И К Л М Н О П Р С Т У Ф Х Ч Ш Ы Э Ю Я       Разные песни
1-9 A B C D E F G H I J K L M N O P Q R S T U V W Y Z      Все исполнители in english

    



группа Radiohead, Аккорды песни Optimistic

Продолжаем грести бабос на ботах в Telegram.
Только в этот раз есть вариант автоматизировать это дело, привлекая рефералов. Вы можете заработать если »

Группа: Radiohead - другие аккорды (189),   о группе (6 статей),   диски (9),   фотографии (134)
Аккорды песни: Optimistic
Просмотров: 2045
Подобрал: Whipper (indiespace@narod.ru)




    
INTRO:
e--5--5-5-5--5-5/7--7-7--7-7--7-7--2-2-2-2--2--2-2--1-1--1-1-1-1h3--     |
B--6--6-6-6--6-6/8--8-8--8-8--8-8--3-3-3-3--3--3-3--1-1--1-1-1-1h3--     |
G--5--5-5-5--5-5/7--7-7--7-7--7-7--2-2-2-2--2--2-2--2-2--2-2-2-2----     |
D--0--0-0-0--0--------0----0--0-0--0-0---0--0--0-0--0-0----0-0-0----     |
A--0---------0--------0-------0----0--------0-------0--------0------     |
E-------------------------------------------------------------------     |
                                                                         |   
x2
e--3--3-3-3--3-3--2-2-2-2--2-2-2-2--                                     |
B--3--3-3-3--3-3--3-3-3-3--3-3-3-3--                                     |
G--2--2-2-2--2-2--2-2-2-2--2-2-2-2--                                     |
D--0--0-0-0--0-0--0-0-0-0--0-0-0-0--                                     |
A-----0---0---------0------0-0---0--                                     |
E-----------------------------------                                     |

e-1-1--1-1-1-1h3--3--3-3-3--3-3--2-2-2-2--2-2-2-2--
B-1-1--1-1-1-1h3--3--3-3-3--3-3--3-3-3-3--3-3-3-3--
G-2-2--2-2-2-2----2--2-2-2--2-2--2-2-2-2--2-2-2-2--
D-0-0----0-0-0----0--0-0-0--0-0--0-0-0-0--0-0-0-0--
A-0--------0---------0---0---------0------0-0---0--
E--------------------------------------------------
VERSE 1:
e--------------------------------------------------  |
B------3-3-3-3--1--1-1-1-1-------5-5-5-5--3-3-3-3--  |    this two times
G--2---2-2-2-2--0--0-0-0-0-------4-4-4-4--2-2-2-2--  |    Thom doesn't sing
D--0---0-0-0-0--0--0-0-0-0---0---0-0-0-0--0-0-0-0--  | x2
A--0-------------------------0---------------------  |
E--------------------------------------------------  |
(the same riff)
Flies are buzzing around my head
Vultures circling the dead
Picking up every last crumb
The big fish eat the little ones
The big fish eat the little ones
Not my problem give me some
CHORUS 1
(same as intro)
You can try the best you can     |
If you try the best you can      | x2
The best you can is good enough  |
e------------------------------------
B-----------------------------0------   <--use this when
G-------------------------2-4---4-5--      it is
D--------------5-7--3-5-7------------      necessary
A--------5-7-8-----------------------
E--5-7-8-----------------------------
BRIDGE 1
e---------------- |
B---------------- | I didn't put the exact number of palm muting but
G--x-x-7-x-x-7--- | you can work it out.
D--x-x-7-x-x-7--- |
A---------------- |
E---------------- |
VERSE 2
(same as first)

Продолжаем грести бабос на ботах в Telegram.
Только в этот раз есть вариант автоматизировать это дело, привлекая рефералов. Вы можете заработать если »

This one's optimistic This one went to market This one just came out of the swamp This one dropped a payload Fodder for the animals Living on an animal farm CHORUS 2 (same as first) BRIDGE 2 (same as verse) OOOOOOoooooooooo OOOOOOOooooooooo etc.... VERSE 3 (Same as fist) I'd really like to help you man I'd really like to help you man..... Nervous messed up marionette Floating around on a prison ship CHORUS 3 (same as first chorus) If you try the best you can If you try the best you can The best you can is good enough If you try the best you can If you try the best you can BRIDGE 3 (same as verse) Dinasaurs roaming the earth x2 Outro: (same as verse) OOooooooooo OOOOOoooooooooo x? (repeat intro) x? and then... (this last part is played over Dm (x5776x), more or less this is the way it's palyed) e------------------------------- e---------------- B------------------------------- B---6------6----- work out the variations of G----7--5h7--5h7-x-7--5h7--5h7-- G-----7------7--- a & b. D----7--5h7--5h7-x-7--5h7--5h7-- D-------7-------- A------------------------------- A---------------- E------------------------------- E---------------- part a part b every single thing of part a need to be muted when you end of playing it -7x--5h7x but do not hit the strings. -7x--5h7x mix part a & b and you'll obtain the outro. _____________________________________________________________________ All i know is that jonny tunes his guitar like this to play that ringing chord... d ----0---- C ----0---- E ----6---- just be sure to strike each string individually. D ----7---- A ---(0)--- D ---------

искать в аптеке
список лекарств






О сайтеАккордыХит-парадПоискУроки ФорумыИщу песню
ПрограммыСвежачок-сПодпискаСтатьи
Яндекс.Метрика