Табулатура Radiohead | Optimistic  (2) гитара табулатуры уроки тексты песен Radiohead текст lyrics песня аккорды песни ноты нота электрогитара струна  
   А Б В Г Д Е Ж З И К Л М Н О П Р С Т У Ф Х Ч Ш Ы Э Ю Я       Разные песни
1-9 A B C D E F G H I J K L M N O P Q R S T U V W Y Z      Все исполнители in english

    



группа Radiohead, Табулатура песни Optimistic (2)

Продолжаем грести бабос на ботах в Telegram.
Только в этот раз есть вариант автоматизировать это дело, привлекая рефералов. Вы можете заработать если »

Группа: Radiohead - другие аккорды (189),   о группе (6 статей),   диски (9),   фотографии (134)
Табулатура песни: Optimistic (2)
Просмотров: 1048
Прислал: Whipper (indiespace@narod.ru)




    
chords:  F G D C#(or maybe F instead) D# D
 intro (with slight distorsion)
        (oooooooooooooo ooooooooo oooooooooooh)

      F    G     D     F    D#     D
 -----5----7-----2-----1-----3-----2-----
 -----6----8-----3-----1-----4-----3-----
 -----5----7-----2-----2-----3-----2-----
 ---------------------------(1)----------
 ----------------------------------------
 ----------------------------------------
 or this way
        (oooooooooooooo ooooooooo oooooooooooh)
             F    G     D    F   D#    D
 ----------------------------------------
 ----10----12----7----6----8----7--------
 ----10----12----7----5----8----7--------
 ----10----12----7----7----8----7--------
 ----(8)--(10)--(5)--(8)--(6)--(5)-------
 ----------------------------------------

 these are the main chords
 (flies are buzzing around my head...)
          Dm   Dsus2 Dsus4 D         F      D#     D
 -(5)----(5)----(5)---(5)-------------------------
 --6------5------8-----7------6------8------7-----
 --7------7------7-----7------5------8------7-----
 --7------7------7-----7------7------8------7-----
 --5------5------5-----5-----(8)-----6------5-----
 -------------------------------------------------
 then its the chorus, the first guitar keeps on playing the same chords
 while the second guitar is playing along using the G Major scale...
        (this is not really accurate. im aware of that)
 (If you try the best you can)
 ----------------------------2^*--------
 -----------------------3-5-------------
 ------------------2-4-5----------------

Продолжаем грести бабос на ботах в Telegram.
Только в этот раз есть вариант автоматизировать это дело, привлекая рефералов. Вы можете заработать если »

------------2-4-5---------------------- ------2-3-5---------------------------- -3-5----------------------------------- second verse the second guitar playes along like this --x--x--x--x--x--x--x--x--x--x --x--x--x--x--x--x--x--x--x--x --x--x--x--x--x--x--x--x--x--x --x--x--x--x--5--x--x--5--5--x --x--x--x--x--x--x--x--x--x--x --x--x--x--x--x--x--x--x--x--x this is played simultaneously. this is actually a keyboard riff now but it isnt when they play it live.. (who cares right?) -------------------------------- -------------------------------- -7--5--------------------------- --------8--7--5--8----7--------- -------------------------------- -------------------------------- outro both guitars -----5----7-----2-----1-----3-----2----- -----6----8-----3-----1-----4-----3----- -----5----7-----2-----2-----3-----2----- -----3----5-----0-----3-----1-----0----- ---------------------------------------- ----------------------------------------

лекарство в аптеке
список лекарств






О сайтеАккордыХит-парадПоискУроки ФорумыИщу песню
ПрограммыСвежачок-сПодпискаСтатьи
Яндекс.Метрика