Табулатура Radiohead | Optimistic гитара табулатуры уроки тексты песен Radiohead текст lyrics песня аккорды песни ноты нота электрогитара струна  
   А Б В Г Д Е Ж З И К Л М Н О П Р С Т У Ф Х Ч Ш Ы Э Ю Я       Разные песни
1-9 A B C D E F G H I J K L M N O P Q R S T U V W Y Z      Все исполнители in english

    



группа Radiohead, Табулатура песни Optimistic

Продолжаем грести бабос на ботах в Telegram.
Только в этот раз есть вариант автоматизировать это дело, привлекая рефералов. Вы можете заработать если »

Группа: Radiohead - другие аккорды (189),   о группе (6 статей),   диски (9),   фотографии (134)
Табулатура песни: Optimistic
Просмотров: 1019
Прислал: Whipper (indiespace@narod.ru)




    
Verse:
  D            F?             Dsus4       D   
--5---5--5-5---5-5--5--5--5---5---5--5-5--5--5--5-5-5--
--7---7--7-7---6-6--6--6--6---8---8--8-8--7--7--7-7-7--
--7---7--7-7---5-5--5--5--5---7---7--7-7--7--7--7-7-7--
--7---7--7-7---7-7--7--7--7---7---7--7-7--7--7--7-7-7--
--5---5--5-5---8-8--8--8--8---5---5--5-5--5--5--5-5-5--
---------------5-5--5--5--5----------------------------
 F?           C             Dsus4 D     Dsus4 D  
-5---5--5-5---3--3--3--3----5--5--5-5---5-5-5----
-6---6--6-6---5--5--5--5----8--7--7-7---8-7-7----
-5---5--5-5---5--5--5--5----7--7--7-7---7-7-7----
-7---7--7-7---5--5--5--5----7--7--7-7---7-7-7----
-8---8--8-8---3--3--3--3----5--5--5-5---5-5-5----
-5---5--5-5--------------------------------------
Chorus:
  D           F?           G               D                 

Продолжаем грести бабос на ботах в Telegram.
Только в этот раз есть вариант автоматизировать это дело, привлекая рефералов. Вы можете заработать если »

--5---5--5-5--5-5-5--5-5---10--10--10-10---10--10--10-10-10--- --7---7--7-7--6-6-6--6-6---12--12--12-12---10--10--10-10-10--- --7---7--7-7--5-5-5--5-5---12--12--12-12---11--11--11-11-11--- --7---7--7-7--7-7-7--7-7---12--12--12-12---12--12--12-12-12--- --5---5--5-5--8-8-8--8-8---10--10--10-10---12--12--12-12-12--- --------------5-5-5--5-5-------------------10--10--10-10-10--- F C Dsus4 D Dsus4 D -8--8--8--8---8----8--8--8--8--8-----5--5--5-5---5-5-5---- -10-10-10-10--10---8--8--8--8--8-----8--7--7-7---8-7-7---- -10-10-10-10--10---9--9--9--9--9-----7--7--7-7---7-7-7---- -10-10-10-10--10---10-10-10-10-10----7--7--7-7---7-7-7---- -8--8--8--8---8----10-10-10-10-10----5--5--5-5---5-5-5---- -------------------8--8--8--8--8--------------------------

лекарство в аптеке
список лекарств






О сайтеАккордыХит-парадПоискУроки ФорумыИщу песню
ПрограммыСвежачок-сПодпискаСтатьи
Яндекс.Метрика