Табулатура Radiohead | How To Disappear Completely гитара табулатуры уроки тексты песен Radiohead текст lyrics песня аккорды песни ноты нота электрогитара струна  
   А Б В Г Д Е Ж З И К Л М Н О П Р С Т У Ф Х Ч Ш Ы Э Ю Я       Разные песни
1-9 A B C D E F G H I J K L M N O P Q R S T U V W Y Z      Все исполнители in english

    



группа Radiohead, Табулатура песни How To Disappear Completely

Продолжаем грести бабос на ботах в Telegram.
Только в этот раз есть вариант автоматизировать это дело, привлекая рефералов. Вы можете заработать если »

Группа: Radiohead - другие аккорды (189),   о группе (6 статей),   диски (9),   фотографии (134)
Табулатура песни: How To Disappear Completely
Просмотров: 1442
Прислал: Whipper (indiespace@narod.ru)




    
Rhythm Guitar
Acoustic Guitar (or turn on the neck pickup)
Capo on 1st Fret
       C                        E
e||--------------------------|------------------------|
B||----1---3--1----1---3--1--|--0---1--0----0---1--0--|
G||--------------------------|------------------------|
D||----2---2--2----2---2--2--|--2---2--2----2---2--2--|
A||----3---3--3----3---3--3--|--2---2--2----2---2--2--|
E||--------------------------|------------------------|
       G                        E
e||----3-----------3----------|------------------------|
B||----3-----------3----------|--0---1--0----0---1--0--|
G||---------------------------|------------------------|
D||---------------------------|--2---2--2----2---2--2--|
A||----2-----------3----------|--2---2--2----2---2--2--|
E||----3-----------3----------|------------------------|
2nd Guitar
Clean Sound
e||----1-4-1--1----1-4-1--1--|--1-4-1--1----1-4-1--1--|
B||----2-2-4--2----2-2-4--2--|--1-2-2--1----1-1-4--2--|
G||----1-1-1--1----1-1-1--1--|--1-1-1--1----1-1-1--1--|
D||--------------------------|------------------------|
A||--------------------------|------------------------|
E||--------------------------|------------------------|
              
These riffs sound always this way.
Only the 3rd guitar riff change.
3rd Guitar                            
Harmonizer or strong chorus           
                                      /=slide up      ^=vibrato
                                      =slide down

Продолжаем грести бабос на ботах в Telegram.
Только в этот раз есть вариант автоматизировать это дело, привлекая рефералов. Вы можете заработать если »

riff #1 e||-------------| B||-----96-----| G||-------------| D||-------------| A||-------------| E||-------------| riff #2 e||-------------| B||-------------| G||---8-6-/8---| D||-------------| A||-------------| E||-------------| riff #3 (feedback + mandolin picking) e||-------------| B||-------------| G||------8^-----| D||-------------| A||-------------| E||-------------| That man, that's not me I go where I please I walk through walls I float down the Liffey I'm not here This isn't happening I'm not here, I'm not here In a little while ... <>

поиск лекарств
список лекарств






О сайтеАккордыХит-парадПоискУроки ФорумыИщу песню
ПрограммыСвежачок-сПодпискаСтатьи
Яндекс.Метрика