Табулатура Radiohead | Kid A гитара табулатуры уроки тексты песен Radiohead текст lyrics песня аккорды песни ноты нота электрогитара струна  
   А Б В Г Д Е Ж З И К Л М Н О П Р С Т У Ф Х Ч Ш Ы Э Ю Я       Разные песни
1-9 A B C D E F G H I J K L M N O P Q R S T U V W Y Z      Все исполнители in english

    



группа Radiohead, Табулатура песни Kid A

Продолжаем грести бабос на ботах в Telegram.
Только в этот раз есть вариант автоматизировать это дело, привлекая рефералов. Вы можете заработать если »

Группа: Radiohead - другие аккорды (189),   о группе (6 статей),   диски (9),   фотографии (134)
Табулатура песни: Kid A
Просмотров: 1347
Прислал: Whipper (indiespace@narod.ru)




    
Standard tuning
This is played on some sort of synthesizer on the album but I've arranged it for guitar here.
Here is the progression played throughout the verses
-----------------17--17--17------15----------18-------------------------------
-----15--15--18--------------18------17--------------13------15---------------
-15--15------15------------------------------------------12-------------------
-------------------------15------14------17------15------14-------------------
-----------------17-----------------------------------------------------------
------------------------------------------------------------------------------
Then the bass riff begins overtop
------------------------------------------------------------------------------
------------------------------------------------------------------------------
------------------------------------------------------------------------------
------------------------------------------------------------------------------

Продолжаем грести бабос на ботах в Telegram.
Только в этот раз есть вариант автоматизировать это дело, привлекая рефералов. Вы можете заработать если »

------------------------------------------------------------------------------ -1-1----3-3----6-6-----5-5-------5-5----3-3----------------------------------- The bass riff at the end of the first verse goes like this ------------------------------------------------------------------------------ ------------------------------------------------------------------------------ ------------------------------------------------------------------------------ -5-5--3-3-------------5-5--3-3------------------------------------------------ --------------------------------5-5------------------------------------------- --------------1-1--------------------1-1--------------------------------------

лекарство в аптеке
список лекарств

Купить масло воск для дерева

Цены на рынке. Продажа и покупка. Купить масло

pirowood.ru








О сайтеАккордыХит-парадПоискУроки ФорумыИщу песню
ПрограммыСвежачок-сПодпискаСтатьи
Яндекс.Метрика