Табулатура Radiohead | Everything In Its Right Place гитара табулатуры уроки тексты песен Radiohead текст lyrics песня аккорды песни ноты нота электрогитара струна  
   А Б В Г Д Е Ж З И К Л М Н О П Р С Т У Ф Х Ч Ш Ы Э Ю Я       Разные песни
1-9 A B C D E F G H I J K L M N O P Q R S T U V W Y Z      Все исполнители in english

    



группа Radiohead, Табулатура песни Everything In Its Right Place

Продолжаем грести бабос на ботах в Telegram.
Только в этот раз есть вариант автоматизировать это дело, привлекая рефералов. Вы можете заработать если »

Группа: Radiohead - другие аккорды (189),   о группе (6 статей),   диски (9),   фотографии (134)
Табулатура песни: Everything In Its Right Place
Просмотров: 1900
Прислал: Whipper (indiespace@narod.ru)




    
Intro: 
Kid A… Kid A…    Kid A… Kid A… 
a|--------------------------------------------------------------------| 
b|--------------------------------------------------------------------| 
g|--5-----------5-5-------------5---5----------5-5------------------:-| 
d|----6-5-6----------3-3--5-5-----6---(6)-----------3-3--5-5--------:-| 
a|----------3---3-3--3-3--3-3-------------3----3-3--3-3--3-3----------| 
e|--------------------------------------------------------------------| 
Verse 1 
Everything… Everything… Everything… Everything… 
a|--------------------------------------------------------------------| 
b|--------------------------------------------------------------------| 
g|--5---5---2-------------------5---5---2---------------------------:-| 
d|----6-----3---5-5--3-3--5-3-----6-----3---5-5--3-3--5-3-----------:-| 
a|--------------3-3--4-4--4-4---------------3-3--4-4--4-4-------------| 
e|--------------------------------------------------------------------| 
Verse 2 
In its right place… (4X) 
a|--------------------------------------------------------------------| 
b|--------------------------------------------------------------------| 
g|--5-----------5-5-------------5-----------5-5---------------------:-| 
d|----6-5-6----------3-3--5-5-----6-5-6----------3-3--5-5-----------:-| 
a|----------3---3-3--3-3--3-3-----------3---3-3--3-3--3-3-------------| 
e|--------------------------------------------------------------------| 
Bit A 
Yesterday I woke up sucking a lemon…(4X) 
e|---------------------------| 
b|-(4)----(3)-(3)--(6)-(6)---| 
g|-(5)----(3)-(3)--(7)-(7)-:-| 
d|--6------5---5----8---8--:-| 
a|-(6)----(5)-(5)--(8)-(8)---| 
e|-(4)----(3)-(3)--(6)-(6)---| 
Verse 1 
Verse 2 with added effects! 
Bit A 
There are two colours in my head… There are two colours in my head… 
What, what is that you tried to say? 
What, what was that you tried to say? 
Tried to say… (4X) 
e|---------------------------| 
b|-(4)----(3)-(3)--(6)-(6)---| 
g|-(5)----(3)-(3)--(7)-(7)-:-| 
d|--6------5---5----8---8--:-| 
a|-(6)----(5)-(5)--(8)-(8)---| 
e|-(4)----(3)-(3)--(6)-(6)---| 
Outro: 
Everything… (Keyboards played in repetition with variations) 
e|--------------------------| 
b|--------------------------| 
g|----2-------------------:-| 
d|----3---5-5---3-3---5-3-:-| 
a|--------3-3---4-4---4-4---| 
e|(1)-----------------------| 
____________________________________________________________
everything in its right place

Продолжаем грести бабос на ботах в Telegram.
Только в этот раз есть вариант автоматизировать это дело, привлекая рефералов. Вы можете заработать если »

tabbed by shane culloty giftboxrock@eircom.net electric piano tabbed for guitar capo Ist fret this tab is just an addition to the other tabs. you play this line at the intro and when thom sings "in its right place." e------------------------------ b-0---------------------------- g--0--------------------------- d---4-0------------------------ a------2-2-2-2-2-2-3-3-3-5-5-5- e ____________________________________________________________ RADIOHEAD Everything in its right place tab:Jasper jasper820@hotmail.com pretty easy F:-81010108 C:-35553 C#maj7:-43111 D#maj7:-65333 intro-F,C,C#,D#,C- 2x F C C# D# everything.. 4x F C C# D# In its right place F C C# D# In its right place F C C# D# In its right place F C C# D# Right place C C# D# C# Yesterday I woke up sucking a lemon C C# D# C# Yesterday I woke up sucking a lemon C C# D# C# Yesterday I woke up sucking a lemon C C# D# C# Yesterday I woke up sucking a lemon Everything, everything, everything.. In its right place In its right place Right place There are two colours in my head There are two colours in my head What was that you tried to say? What was that you tried to say? Tried to say.. tried to say.. To say.. to say.. to say... Everything, everything, everything.. Everything in its right place Thats it!

лекарство в аптеке
список лекарств






О сайтеАккордыХит-парадПоискУроки ФорумыИщу песню
ПрограммыСвежачок-сПодпискаСтатьи
Яндекс.Метрика