Табулатура Radiohead | Subterrerian Homesick Alien гитара табулатуры уроки тексты песен Radiohead текст lyrics песня аккорды песни ноты нота электрогитара струна  
   А Б В Г Д Е Ж З И К Л М Н О П Р С Т У Ф Х Ч Ш Ы Э Ю Я       Разные песни
1-9 A B C D E F G H I J K L M N O P Q R S T U V W Y Z      Все исполнители in english

    



группа Radiohead, Табулатура песни Subterrerian Homesick Alien

Продолжаем грести бабос на ботах в Telegram.
Только в этот раз есть вариант автоматизировать это дело, привлекая рефералов. Вы можете заработать если »

Группа: Radiohead - другие аккорды (189),   о группе (6 статей),   диски (9),   фотографии (134)
Табулатура песни: Subterrerian Homesick Alien
Просмотров: 1212
Прислал: Whipper (indiespace@narod.ru)




    
This song is in 6/8 so watch your timing.
Listen to the song to get the proper time measurements.
-5----5---5-----------|---4-------------|---------------------|-----------------------
-6----------6p5-------|-----4-----------|---------------------|-----------------------
-7--7---7-------7-6---|-5-----6p5-------|---------------------|-----------------------
-7--------------------|-6---------6p5---|-4-4---------4-------|-------4---4-3-3---3-1-
-5--------------------|-6---------------|-5---5---------5-----|-----------------------
----------------------|-4---------------|-5-----3h5p3---------|-3h5p3---5---4---4-----
                                                                              
----------19--|--15--------19----|--15---------------------------|--------|--------------
-------18-----|---------17-------|------15-13-12-13-12-13--------|-12-3---|--------------
----19--------|-------19---------|-------------------------------|--------|--------------
--------------|------------------|-------------------------------|--------|--------------
--------------|------------------|-------------------------------|--------|--------------
--------------|------------------|-------------------------------|--------|--------------
  for the verse play with this part and play the last 4 bars above.           
---------|---------------------------------------------------------------------
---3/15--|---------------------------------------------------------------------
---------|---------------------------------------------------------------------
---------|---------------------------------------------------------------------
---------|---------------------------------------------------------------------
---------|---------------------------------------------------------------------
               chorus                                                         
-----3-----3------3------3---|-----3-----3-----3-----3----|-----------------------|------

Продолжаем грести бабос на ботах в Telegram.
Только в этот раз есть вариант автоматизировать это дело, привлекая рефералов. Вы можете заработать если »

---3-----3------3-----3------|---3-----3-----3-----3------|-----------------------|------ -2-----0---------------------|----------------------------|-----------------------|------ --------------3--------------|-2-----0--------------------|-----------------------|------ --------------------3--------|-------------3--------------|-0h2-2-3-0h2-2-3-------|------ -----------------------------|-------------------3--------|-----------------------|------ 1st ending 2nd ending 3rd ending -------------------------|----------------------------|------|----------------------- -------------------------|----------------------------|-3----|----------------------- -------------------------|----------------------0-----|-0----|----------------------- -0--0--------0---0--2----|----------------0-2-3-------|-3----|----------------------- ------3--2h3---3---------|--0-2-3-2-0-2-3-------------|------|----------------------- -------------------------|-3--------------------------|-3----|----------------------- outro -5-5--5---------------|--------------------|----|---------------------------------- -6-6--6---6p5---------|--------------------|----|---------------------------------- -7-7--7-------7--6----|-5-----5-6p5--------|----|---------------------------------- -7-7--7---------------|-6-----------6---5--|-4--|---------------------------------- -5-5--5---------------|-6------------------|-5--|---------------------------------- ----------------------|-4------------------|-5--|----------------------------------

поиск лекарств
список лекарств






О сайтеАккордыХит-парадПоискУроки ФорумыИщу песню
ПрограммыСвежачок-сПодпискаСтатьи
Яндекс.Метрика