Табулатура Radiohead | Fitter Happier гитара табулатуры уроки тексты песен Radiohead текст lyrics песня аккорды песни ноты нота электрогитара струна  
   А Б В Г Д Е Ж З И К Л М Н О П Р С Т У Ф Х Ч Ш Ы Э Ю Я       Разные песни
1-9 A B C D E F G H I J K L M N O P Q R S T U V W Y Z      Все исполнители in english

    



группа Radiohead, Табулатура песни Fitter Happier

Продолжаем грести бабос на ботах в Telegram.
Только в этот раз есть вариант автоматизировать это дело, привлекая рефералов. Вы можете заработать если »

Группа: Radiohead - другие аккорды (189),   о группе (6 статей),   диски (9),   фотографии (134)
Табулатура песни: Fitter Happier
Просмотров: 1388
Прислал: Whipper (indiespace@narod.ru)




    
---|------------------8|-6----------------6-|-6---------------------|------
---|--------------------|---------------------|------------------------|------
-3-|--6--5--6-5-6--- |-5--6--5--6-5-----|-5-5-6-5-5 -6-5-6-5-|------
-2-|-------------------|---------------------|-7----------------------|------
---|--------------------|-----------------8--|------------------------|------
---|--------------------|---------------------|------------------------|------
  Adim                  Bbm                   Adim                            
--6-------------------|-6---------- -----8-|-6--------------- -|------------
----------------------|---------------------|--------------------|------------
--5-5-6-5-6-5-6-5-|-6--5--6--5-6-5-6|-5-6-5--6-5-6-5-|------------
--7-------------------|-8------------------|-7----------------  |------------
----------------------|---------------------|--------------------|------------
----------------------|---------------------|--------------------|------------
 F                     Gm                                                     
-6-------------------|-6-----------------8-|-6---------------6-|------------
---------------------|-------------------- -|---------------------|------------
-5-5-6-5-6-5-6-5-|-7-7-8-7--8-7-8---|-7-7-8-7-8-7-8---|------------
-7-------------------|-5-------------------|-5------------------|------------
-8-------------------|---------------------|---------------------|------------
---------------------|---------------------|---------------------|------------
 F#dim                                      Gm                                
-5-----------------6-|-5-----------------|-6-----------------6--------------
---------------------|---------------------|----------------------------------

Продолжаем грести бабос на ботах в Telegram.
Только в этот раз есть вариант автоматизировать это дело, привлекая рефералов. Вы можете заработать если »

-5-5-7-5-7-5-7- |-5-5-7-5-8-7-5-7-|-7--7--8--7--8-7-8---------------- -7-------------------|-7------------------|-5-------------------------------- ---------------------|---------------------|---------------------------------- ---------------------|---------------------|---------------------------------- Adim rit Gm a tempo -6-----------------6-|-5----------------6-|-6-------------------|----------- -------------------- -|----------------------|8------------------|----------- -7--7-8-7-8-7-8---|-5--7--5--7-8-7-5-|-7-5-7-5-7-8-7-5-|----------- -5-------------------|----------------------|-5--------------- ---|----------- ---------------------|----------------------|---------------------|----------- ---------------------|----------------------|---------------------|----------- Bbm -6------------------8-|-6----------------------------------------------------- -6--------------------|------------------------------------------------------- -6--5--6--5---6-5-6|-6----------------------------------------------------- -8--------------------|------------------------------------------------------- ------------8---------|------------------------------------------------------- ---------------------- |-------------------------------------------------------

найти лекарство
список лекарств






О сайтеАккордыХит-парадПоискУроки ФорумыИщу песню
ПрограммыСвежачок-сПодпискаСтатьи
Яндекс.Метрика