Табулатура Radiohead | Street Spirit(fade Out) гитара табулатуры уроки тексты песен Radiohead текст lyrics песня аккорды песни ноты нота электрогитара струна  
   А Б В Г Д Е Ж З И К Л М Н О П Р С Т У Ф Х Ч Ш Ы Э Ю Я       Разные песни
1-9 A B C D E F G H I J K L M N O P Q R S T U V W Y Z      Все исполнители in english

    



группа Radiohead, Табулатура песни Street Spirit(fade Out)

Продолжаем грести бабос на ботах в Telegram.
Только в этот раз есть вариант автоматизировать это дело, привлекая рефералов. Вы можете заработать если »

Группа: Radiohead - другие аккорды (189),   о группе (6 статей),   диски (9),   фотографии (134)
Табулатура песни: Street Spirit(fade Out)
Просмотров: 2545
Прислал: Whipper (indiespace@narod.ru)




    

FIG. 1
    Am              Asus4           Am              Asus2                      
E-|---------0---------------0---------------0-----------------------|
B-|-----------------3---------------1---------------0---------------|
G-|-----2-------2-------2-------2-------2-------2-------2-------2---|
D-|---------------------------------------------------------2-------|
A-|-0---------------------------------------------------------------|
E-|-----------------------------------------------------------------|
                                                                     

FIG. 2 

    Em              Em7             Em6             Em               
E-|---------0---------------0---------------0-----------------------|
B-|-----------------3---------------1---------------0---------------|
G-|-----0-------0-------0-------0-------0-------0-------0-------0---|
D-|---------------------------------------------------------2-------|
A-|-----------------------------------------------------------------|
E-|-0---------------------------------------------------------------|


FIG. 3
                                                                     
    C               Cadd9           C               Cmaj7            
E-|---------0---------------0---------------0-----------------------|
B-|-----------------3---------------1---------------0---------------|
G-|-----0-------0-------0-------0-------0-------0-------0-------0---|
D-|---------------------------------------------------------2-------|
A-|-3---------------------------------------------------------------|
E-|-----------------------------------------------------------------|
                                                                               


---------------------------------------------------------------------------------------


This is Jonny's powerful part in "Street spirit"
(The high notes)
Well check it out...

*******Ok ! put the capo on the 12th fret.**********

this part begins  at 2:19 "cracked eggs ..."

E----------------------------------------------------------------------
B----13---12---------12--13-----13--12--------------12------13---------
G-------------12--12-------------------12------12----------------------
D---------------14--------------------------14-------------------------
A----------------------------------------------------------------------
E--12-----------12-----------12-------------12-------------------------

E------------------12---------------
B--------13--12--------13--12-------
G--14------------14------------14---
D------14---------------------------
A-----------------------------------
E----------------------------------- 2 TIMES

E----------------------------------- 
B--------13--12------------12--13---
G--12------------12-----12----------
D------14------------14-------------
A-----------------------------------
E----------------------------------- 2 TIMES

E-----------------------12------------------------------------------------
B----------13--12------------13--12-----------------13------12------------
G-14--------------14-----------------14-------14---------14------14---12--
D-----14--------------------------------14--------14--------------------14
A-------------------------------------------------------------------------
E-------------------------------------------------------------------------
                                                                 
+G--12----14---

E--------------------------------------------------------------------------
B----------13--12----------------12--13--------13--12------------------12--13G------------------12--------12------------------------12-------12-----------D-----14-----------------14---------------------------------12---------------A--15------------------------------------------------------------------------E-----------------------------------------12----------------12---------------
E----------------------12--------------------------------12-----------------
B----------13--12----------13--12------------13--12----------13--12---------
G--14--------------14--------------14----------------14----------------14--12D------14------------------------------14------------------------------------A----------------------------------------------------------------------------E----------------------------------------------------------------------------
These are the main riffs just try them out, if you listen to the song you won't have any problem to fugure this out.



------------------------------------------------------------------------------------------------------------------------------



Продолжаем грести бабос на ботах в Telegram.
Только в этот раз есть вариант автоматизировать это дело, привлекая рефералов. Вы можете заработать если »


лекарство в аптеке
список лекарств






О сайтеАккордыХит-парадПоискУроки ФорумыИщу песню
ПрограммыСвежачок-сПодпискаСтатьи
Яндекс.Метрика