Табулатура Radiohead | The Trickster гитара табулатуры уроки тексты песен Radiohead текст lyrics песня аккорды песни ноты нота электрогитара струна  
   А Б В Г Д Е Ж З И К Л М Н О П Р С Т У Ф Х Ч Ш Ы Э Ю Я       Разные песни
1-9 A B C D E F G H I J K L M N O P Q R S T U V W Y Z      Все исполнители in english

    



группа Radiohead, Табулатура песни The Trickster

Работа в Европе для граждан РФ, Украины, СНГ

  • минимальная зарплата $500.
  • виза и контракт на полгода, возможно продление
  • проживание оплачивает работодатель
  • нужен только загранпаспорт
  • оформление 190 €
  • данное предложение - отличная возможность эмигрировать в Европу и закрепиться здесь навсегда.

  • Мы свяжемся с Вами по WhatsApp или Viber и ответим на любые вопросы.
    на нашем сайте можно почитать подробнее »

    Группа: Radiohead - другие аккорды (189),   о группе (6 статей),   диски (9),   фотографии (134)
    Табулатура песни: The Trickster
    Просмотров: 2149
    Подобрал: Steven McGovern (smcgovern@comms.kst.dit.ie)




        
    Verse & Intro (Gtr.1)
     Riff 1 _________________________________________________________________________________]
    e-------------------------------------------------------------------------------------------------------------
    B------3-3-3--3-3-3-3-3----3-3-3--3-3-3-3-3----3-3-3--3-3-3-3-3------4--4-6---3---3-3-3-3---------------------
    G------3-2-0--2-3-2-0-0----3-2-0--2-3-2-0-0----3-2-0--2-3-2-0-0--3-3-3--3-3---2-2-2-2-2-2---------------------
    D----------------------------------------------------------------0-0-0--0-0-0-0-0-0-0-0-0---------------------
    A-------------------------------------------------------------------------------------------------------------
    E--3-3-----------------2-2-----------------1-1----------------------------------------------------------------
     Gtr.2  (Gtr.1 Riff 1)
    e-------------------------------------------------------------------------------------------------------------
    B-------------------------------------------------------------------------------------------------------------
    G-7-7-8--8-8-8-8-7-7-7/--8--8-8-8-8-7-7-5-3--8-8--8-8-8-8-7-7-x--8-8-8--8-8-10-x-x-12-x-x-14-15---------------
    D-------------------------------------------------------------x----------------x-x----x-x---------------------
    A-------------------------------------------------------------------------------------------------------------
    E-------------------------------------------------------------------------------------------------------------
    Verse           Pre-Chorus
    e-------------------------------------------------------------------------------------------------------------
    B-------------------------------------------------------------------------------------------------------------
    G-- Riff 1 x2 ----8--8--7--8--8--7--7-7-7-7-7-7-7-7-7-7-7-----------------------------------------------------
    D-------------------------------------------------------------------------------------------------------------
    A-------------------------------------------------------------------------------------------------------------
    E-------------------------------------------------------------------------------------------------------------
    Chorus
     Riff 2_________________________________________________________________________]
    e-------------------------------------------------------------------------------------------------------------
    B------------------------------8---------------------8---8--8---9--7-----7------------------------------------
    G--7-5-3-5-7-5-3--5--7-5-3-5-7---7-5--7-5-3-5-7-5-3----8------8------7-7---7-7-7--Riff 2----------------------
    D-------------------------------------------------------------------------------------------------------------
    A-------------------------------------------------------------------------------------------------------------
    E-------------------------------------------------------------------------------------------------------------
    e-------------------------------------------------------------------------------------------------------------
    B-------------------------------------------------------------------------------------------------------------
    G--Verse, Pre-Chorus,-----------------------------------------------------------------------------------------
    D-------------------------------------------------------------------------------------------------------------
    A-------------------------------------------------------------------------------------------------------------
    E-------------------------------------------------------------------------------------------------------------
    2nd Chorus
    Riff 3 ______________________________________________________________________]
    e-------------------------------------------------------------------------------------------------------------
    B-------3---3------------3---8------------3---3-0--8---8-8---9-7-----7---7------------------------------------
    G-7-5-3-5-3-5-3-5--7-5-3-5-3---7-5--7-5-3-5-3--------8-----8-----7-7---7---7-------Rifff2---------------------
    D-------------------------------------------------------------------------------------------------------------
    A-------------------------------------------------------------------------------------------------------------
    E-------------------------------------------------------------------------------------------------------------
    
    Interlude (2 gtrs for one)
      
    e------0---------0-------0---------0---------0---------0--------0-----0----0----------0----------0------------
    B--------3---------3-------3---------3---------3---------3--------3-----3----3----------3----------3----------
    G------------0-0--------------0-0-----------------0--0--------------------------------------0-0---------------
    D-------------------------------------------------------------------------------------------------------------
    A-1--1----------------2-2----------------3-3-----------------2-2-------------------1-1------------------------
    E-------------------------------------------------------------------------------------------------------------
     *=plucked with fretted finger
     Gtr 2.
                .5                 .5                    .5                 .5                   .5
    e-------------------------------------------------------------------------------------------------------------
    B-------------------------------------------------------------------------------------------------------------
    G---0-0-0-0-2/-0-0-0---0-0-0-0-2/-0-0-0---0-0-0-0-2/-0-0-0---0-0-0-0-2/-0-0-0----0-0-0-0-2/-0-0-0--------
    D-------------------------------------------------------------------------------------------------------------
    A-1-------------------2-------------------3-------------------2--------------------1--------------------------
    E-------------------------------------------------------------------------------------------------------------
     
    e-----0--------0----------------------------------------------------------------------------------------------
    B-------3--------3--------------------------------------------------------------------------------------------
    G---------0--0-----------0-0-0-0-0---0--0---0-0-0--0----------------------------------------------------------
    D-------------------------------------------------------------------------------------------------------------
    A-2-2----------------3-3--------------------------------------------------------------------------------------
    E-------------------------------------------------------------------------------------------------------------
                .5                   .5         .5        .5---------]
    e-------------------------------------------------------------------------------------------------------------
    B-------------------------------------------------------------------------------------------------------------
    G---0-0-0-0-2/-0-0-0----0-0-0-0-2/-0-0-0--2/-0-0-0-2/------------------------------------------------------
    D-------------------------------------------------------------------------------------------------------------
    A-2--------------------3--------------------------------------------------------------------------------------
    E-------------------------------------------------------------------------------------------------------------
    
    e-------------------------------------------------------------------------------------------------------------
    B-------------------------------------------------------------------------------------------------------------
    G-------------------------------------------------------------------------------------------------------------
    D-------------------------------------------------------------------------------------------------------------
    A-------------------------------------------------------------------------------------------------------------
    E-3-3-----2-2-----1-1----0-0---1-2-5-2---3-3---2-2---1-1--0-0--1-3-2-1-0--------------------------------------
    e-------------------------------------------------------------------------------------------------------------
    B--------------------------------------------------20---------------------------------------------------------
    G-PChorus-19-17-15-17-19-17-15--17--19-17-15-17-19-19-19-17--19-17-15-17-19-17-15--20--20-20-20-19-19-19-17-15
    D-------------------------------------------------------------------------------------------------------------
    
    Узнай ВСЕ о своем друге в ВК или FB
    A------------------------------------------------------------------------------------------------------------- E------------------------------------------------------------------------------------------------------------- e------------------------------------------------------------------------------------------------------------- B------------------------------------------------------------------------------------------------------------- G-19-19-19-19-17--15--17-17-19-19-17-17-15-17--17-19-19-17-15--15-17--19-17-15-19--15-17-19-19-19-17-15-15-17- D------------------------------------------------------------------------------------------------------------- A------------------------------------------------------------------------------------------------------------- E------------------------------------------------------------------------------------------------------------- e------------------------------------------------------------------------------------------------------------- B------------------------------------------------------------------------------------------------------------- G-15-15-17-15-17-20----20----20----20----20----20------------------------------------------------------------- D-------------------20----20----20----20----20----20---------------------------------------------------------- A------------------------------------------------------------------------------------------------------------- E------------------------------------------------------------------------------------------------------------- ~ ~ ~ ~ ~ ~ ~ ~ e-------------3------------3------------3------------3------------3------------3------------3------------3---- B------------------------------------------------------------------------------------------------------------- G--7--5--3-3--5---7--5--3--5---7--5--3--5---7--5--3--5---7--5--3--5---7--5--3--5---7--5--3--5---7--5--3--5---- D------------------------------------------------------------------------------------------------------------- A------------------------------------------------------------------------------------------------------------- E------------------------------------------------------------------------------------------------------------- ~ ~ ~~ ~ ~ ~ ~ e-----------3------------3--------------------------------------3------------3------------3------------3------ B------------------------------------------------------------------------------------------------------------- G--7--5--3--5---7--5--3--5---0-2--2-0--x-x-5-0-3-5--x--7--5--3--5---7--5--3--5---7--5--3--5---7--5--3--5------ D--------------------------------------x-x----------x--------------------------------------------------------- A--------------------------------------x-x-------------------------------------------------------------------- E------------------------------------------------------------------------------------------------------------- ~ ~ ~ ~ e------------3------------3----------------------------------------------------------------------------------- B------------------------------------------------------------------------------------------------------------- G---7--5--3--5---7--5--3--5---7--5--3---7-5-3-0--5-0-3-0------------------------------------------------------ D--------------------------------------------------------5-3-2-0---------------------------------------------- A----------------------------------------------------------------5-3-2-0-------------------------------------- E------------------------------------------------------------------------3------------------------------------ ------------------------------------------------------------------------------------------------------------------------------ Verse: -------------------------------------------------------------------- -------------------------------------------------------------------- ------3---2-0---2---3---2---0---------3---2-0---2---3---2---0------- ------0---0-0---0---0---0---0---------0---0-0---0---0---0---0------- -------------------------------------------------------------------- --3-3---3-----3---3---3---3---3-3-2-2---2-----2---2---2---2---2-2--- -------------------------------------------------------------------- --------------------------------------------6----------------------- ------3---2-0---2---3---2---0-----8-8-8-8-8---8-7---7-7-7----------- ------0---0-0---0---0---0---0-----------------------------8-8-7-7--- ----------------------------------6-6-6-6-6---6-5---5-5-5----------- --1-1---1-----1---1---1---1---1-1-------------------------6-6-5-5--- Chorus: -------------------------------------------------------------------- --4--------------4----------------3--------------------------------- --5--------------5----------------3--------------------------------- --5--------------5----------------0--------------------------------- X2 --3----------------------------------------------------------------- -----------------5----------------3--------------------------------- Cm Am7b5 Gm ================================================================================ From : Geordie McLellan I find this to be more accurate and easier than the two versions that have been posted. Note: up pick on the G and B strings Verse & intro (Gtr.1) Riff 1 e: B:------3-3-3--3-3-3---3------3-3-3--3-3-3---3------3-3-3--3-3-3---3 G:------3-2-0--2-3-2---0------3-2-0--2-3-2---0------3-2-0--2-3-2---0 D:------------------------------------------------------------------------- A:------------------------------------------------------------------------ E:--3-3---------------3----2-2----------------2----1-1---------------1-- e:--------------1 | B:-------4---4---4-3 | G:-------3---3---3-2 | D:--1-1---1---------| A:-------------------| E:--------------------| The chorus is more convienient played: e:-----------------------------3-----------------------------1 | B:--3-1--1-3-1--1--1-3-1-3-1-3-1--3-1-1-3-1--------4-4--4-3 | G:------3-------3-------3----------------3------3------3-3--3-2 | D:--------------------------------------------------1-1---------- | A:--------------------------------------------------------------- | E:--------------------------------------------------------------- |

    лекарство в аптеке
    список лекарств






    О сайтеАккордыХит-парадПоискУроки ФорумыИщу песню
    ПрограммыСвежачок-сПодпискаСтатьи
    Яндекс.Метрика