Аккорды Radiohead | Blow Out гитара табулатуры уроки тексты песен Radiohead текст lyrics песня аккорды песни ноты нота электрогитара струна  
   А Б В Г Д Е Ж З И К Л М Н О П Р С Т У Ф Х Ч Ш Ы Э Ю Я       Разные песни
1-9 A B C D E F G H I J K L M N O P Q R S T U V W Y Z      Все исполнители in english

    



группа Radiohead, Аккорды песни Blow Out

Продолжаем грести бабос на ботах в Telegram.
Только в этот раз есть вариант автоматизировать это дело, привлекая рефералов. Вы можете заработать если »

Группа: Radiohead - другие аккорды (189),   о группе (6 статей),   диски (9),   фотографии (134)
Аккорды песни: Blow Out
Просмотров: 1611
Прислал: Whipper (indiespace@narod.ru)




    
Verse and Chorus
           
        Em7         G             Em7                          A                           A
E--------2----------3--------------2-------x---------x---------0---------x---------x-------0------
B--------0----------0--------------0-------1----s/---3---------2---------1---s/----3-------2------
G--------0----------0--------------0-------0----s/---0---------2---------0---s/----0-------2------
D--------2----------x--------------2-------2----s/---4---------2---------2---s/----4-------2------
A--------2----------x--------------2-------x---------x---------0---------x---------x-------0------
E--------0----------3--------------0-------x---------x---------x---------x---------x-------x------

(Loud distorted bit)
 
       A                          C
    
E------4--------------------------0------------
B------2--------------------------0------------
G------2--------------------------0------------

Продолжаем грести бабос на ботах в Telegram.
Только в этот раз есть вариант автоматизировать это дело, привлекая рефералов. Вы можете заработать если »

D------2--------------------------2------------ A------0--------------------------3------------ E------x--------------------------3------------ Words Verse One In my mind and nailed into my heals All the time, killing what I feel Chorus And everything I touch (All wrapped up in cotton wool) Turns to stone (All wrapped up in sugarcoated pills) Verse Two I am fused, just in case I blow out I am glued, just in case I crack out.

найти лекарство
список лекарств






О сайтеАккордыХит-парадПоискУроки ФорумыИщу песню
ПрограммыСвежачок-сПодпискаСтатьи
Яндекс.Метрика