Аккорды Radiohead | Vegetable гитара табулатуры уроки тексты песен Radiohead текст lyrics песня аккорды песни ноты нота электрогитара струна  
   А Б В Г Д Е Ж З И К Л М Н О П Р С Т У Ф Х Ч Ш Ы Э Ю Я       Разные песни
1-9 A B C D E F G H I J K L M N O P Q R S T U V W Y Z      Все исполнители in english

    



группа Radiohead, Аккорды песни Vegetable

Работа в Европе для граждан РФ, Украины, СНГ

  • минимальная зарплата $500.
  • виза и контракт на полгода, возможно продление
  • проживание оплачивает работодатель
  • нужен только загранпаспорт
  • оформление 190 €
  • данное предложение - отличная возможность эмигрировать в Европу и закрепиться здесь навсегда.

  • Мы свяжемся с Вами по WhatsApp или Viber и ответим на любые вопросы.
    на нашем сайте можно почитать подробнее »

    Группа: Radiohead - другие аккорды (189),   о группе (6 статей),   диски (9),   фотографии (134)
    Аккорды песни: Vegetable
    Просмотров: 1287
    Прислал: Whipper (indiespace@narod.ru)




        
    Intro. Bass opens (I think) as illustrated.  Then guitar. 
    ----------------------------------------------------------------
    -----3-----------3-----------3-----1-----------3----------------
    --------0--0--------0-----------0--0--------------0-------------
    --------------4--------0--2--------2--------4--------4--0-5-4-0-(???)
    -----------------------------------3----------------------------
    --3(bass)-------------------------------------------------------
    ----------------------------------------------------------------
    -----3-----------3-----------3-----1----------------------------
    --0-----0--0--------0-----------0--0----------------------------
    --------------4--------0--2--------2----------------------------
    -----------------------------------3----------------------------
    ----------------------------------------------------------------
    
    1.
    ----------------------------------------------------------------
    -----3-----------3-----------3-----1----------------------------
    --0-----0--0--------0-----------0--0----------------------------
    --------------4--------0--2--------2----------------------2--0--
    -----------------------------------3----------------------------
    ----------------------------------------------------------------
         I never wanted anything but   this
    
    ----------------------------------------------------------------
    -----3-----------3-----------3-----1----------------------------
    --0-----0--0--------0-----------0--0----------------------------
    --------------4--------0--2--------2----------------------------
    -----------------------------------3----------------------------
    ----------------------------------------------------------------
    I worked     hard,      tried     hard
    
    ----------------------------------------------------------------
    -----3-----------3-----------3-----1----------------------------
    --0-----0--0--------0-----------0--0----------------------------
    --------------4--------0--2--------2----------------------------
    -----------------------------------3----------------------------
    ----------------------------------------------------------------
    I     ran   around in domestic    bliss
    
    ----------------------------------------------------------------
    -----3-----------3-----------3-----1---------------------1-1-1--
    --0-----0--0--------0-----------0--0---------------------3-3-3--
    --------------4--------0--2--------2---------------------2-2-2--
    -----------------------------------3---------------------3-3-3--
    ----------------------------------------------------------------
    I  fought    hard,       died     hard
    -----------------------------------------------3----------------
    --------------2--------2--------------4-----------4-------------
    --2--0-----------2--------2--------------5-----------5----------
    ----------------------------------------------------------------
    --------0-----------0--------0--3-----------3-------------------
    ----------------------------------------------------------------
    Every time                 you're  running     out of 
    -------------------------------------------------------------------
    --3-----------3-----------3-----------1----------------------------
    --0-----------0-----------0-----------0----------------------------
    --0-----------4-----------2-----------2----------------------------
    --------------------------------------3----------------------------
    -------------------------------------------------------------------
    here
    
    -----------------------------------------------3----------------
    --------------2--------2--------------4-----------4-------------
    --2--0-----------2--------2--------------5-----------5----------
    ----------------------------------------------------------------
    --------0-----------0--------0--3-----------3-------------------
    ----------------------------------------------------------------
    Every time                 you're  running     get the 
    
    ----------------------------------------------------------------
    -----3-----------3-----------3-----1----------------------------
    --0-----0--0--------0-----------0--0----------------------------
    --------------4--------0--2--------2----------------------------
    -----------------------------------3----------------------------
    ----------------------------------------------------------------
    fear.
           
    ----------------------------------------------------------------
    -----3-----------3-----------3-----1----------------------------
    --0-----0--0--------0-----------0--0----------------------------
    --------------4--------0--2--------2----------------------------
    -----------------------------------3----------------------------
    ----------------------------------------------------------------
           
    
    2.
    ----------------------------------------------------------------
    -----3-----------3-----------3-----1----------------------------
    --0-----0--0--------0-----------0--0-----------------0---------0
    --------------4--------0--2--------2--------------------2--0-2--
    -----------------------------------3----------------------------
    ----------------------------------------------------------------
        I never wanted  any broken   bones
    
    ----------------------------------------------------------------
    -----3-----------3-----------3-----1----------------------------
    --0-----0--0--------0-----------0--0--------0--2-----2--0------0
    --------------4--------0--2--------2-----------------------0-2--
    -----------------------------------3----------------------------
    ----------------------------------------------------------------
         Scarred face,        no      home
    
    ----------------------------------------------------------------
    -----3-----------3-----------3-----1----------------------------
    --0-----0--0--------0-----------0--0----------------------------
    --------------4--------0--2--------2----------------------------
    -----------------------------------3----------------------------
    ----------------------------------------------------------------
    You words surround me and I asphyxiate
    
    ----------------------------------------------------------------
    -----3-----------3-----------3-----1---------------------1-1-1--
    --0-----0--0--------0-----------0--0---------------------3-3-3--
    
    Узнай ВСЕ о своем друге в ВК или FB
    --------------4--------0--2--------2---------------------2-2-2-- -----------------------------------3---------------------3-3-3-- ---------------------------------------------------------------- And I burn all hate -----------------------------------------------3---------------- --------------2--------2--------------4-----------4------------- --2--0-----------2--------2--------------5-----------5---------- ---------------------------------------------------------------- --------0-----------0--------0--3-----------3------------------- ---------------------------------------------------------------- Every time you're running out on ------------------------------------------------------------------- --3-----------3-----------3-----------1---------------------------- --0-----------0-----------0-----------0---------------------------- --0-----------4-----------2-----------2---------------------------- --------------------------------------3---------------------------- ------------------------------------------------------------------- me -----------------------------------------------3---------------- --------------2--------2--------------4-----------4------------- --2--0-----------2--------2--------------5-----------5---------- ---------------------------------------------------------------- --------0-----------0--------0--3-----------3------------------- ---------------------------------------------------------------- Every time you're running I can ---------------------------------------------------------------- -----3-----------3-----------3-----1--------1-----1--1-----1---- --0-----0--0--------0-----------0--0--------0-----0--0-----0---- --------------4--------0--2--------2--------2-----2--2-----2---- -----------------------------------3--------3-----3--3-----3---- ---------------------------------------------------------------- see. I'm not a vegeta- ble ---------------------------------------------------------------- -----3-----------3-----------3-----1--------1-----1--1-----1---- --0-----0--0--------0-----------0--0--------0-----0--0-----0---- --------------4--------0--2--------2--------2-----2--2-----2---- -----------------------------------3--------3-----3--3-----3---- ---------------------------------------------------------------- I will not control my- self ---------------------------------------------------------------- -----3-----------3-----------3-----1--------1-----1--1-----1---- --0-----0--0--------0-----------0--0--------0-----0--0-----0---- --------------4--------0--2--------2--------2-----2--2-----2---- -----------------------------------3--------3-----3--3-----3---- ---------------------------------------------------------------- I spit on the hand that feeds me ---------------------------------------------------------------- -----3-----------3-----------3-----1---------------------------- --0-----0--0--------0-----------0--0---------------------------- --------------4--------0--2--------2---------------------------- -----------------------------------3---------------------------- ---------------------------------------------------------------- I will not control my- self ------------------------------------------------------------------- -----5------7--8-----7-------12----------------12----10----8----7-- ------------------------------------------------------------------- ------------------------------------------------------------------- ------------------------------------------------------------------- ------------------------------------------------------------------- The waters break, the waters run all over me ----------------------------------------------------------------- ----5------7----3---------1-----------0-----1----1----1---------- --------------------------------------------0----0----0---------- --------------------------------------------2----2----2---------- --------------------------------------------3----3----3---------- ----------------------------------------------------------------- The waters break, the waters run And this time your gonna pay (Something similar to the) solo: * = vibrate / = bend = release ------------------------------------------------------------------- ------------------------------------------------------------------- -----12*-------10--12*-----10--12*-----10--12---------------------- -----------------------------------------------10------------------ ------------------------------------------------------------------- ------------------------------------------------------------------- ------------------------------------------------------------------- -------------------------------------------------12/13------------- -----12*-------10--12*-----10--12*-----10--12---------------------- ------------------------------------------------------------------- ------------------------------------------------------------------- ------------------------------------------------------------------- ------------------------------------------------------------------- ------------------------------------------------------------------- ------------------------------------------------------------------- ------------------------------------------------------------------- -----10------------10---------9-------7/87------------------------ ------------------------------------------------8------------------ ------------------------------------------------------------------- ------------------------------------------------------------------- ------9--9--9--9*-----7--9*-----7---------------------------------- ------------------------------------------------------------------- ------------------------------------------------------------------- -------------------------------------------------------------------

    найти лекарство
    список лекарств






    О сайтеАккордыХит-парадПоискУроки ФорумыИщу песню
    ПрограммыСвежачок-сПодпискаСтатьи
    Яндекс.Метрика