Табулатура Radiohead | Anyone Can Play Guitar гитара табулатуры уроки тексты песен Radiohead текст lyrics песня аккорды песни ноты нота электрогитара струна  
   А Б В Г Д Е Ж З И К Л М Н О П Р С Т У Ф Х Ч Ш Ы Э Ю Я       Разные песни
1-9 A B C D E F G H I J K L M N O P Q R S T U V W Y Z      Все исполнители in english

    



группа Radiohead, Табулатура песни Anyone Can Play Guitar

Продолжаем грести бабос на ботах в Telegram.
Только в этот раз есть вариант автоматизировать это дело, привлекая рефералов. Вы можете заработать если »

Группа: Radiohead - другие аккорды (189),   о группе (6 статей),   диски (9),   фотографии (134)
Табулатура песни: Anyone Can Play Guitar
Просмотров: 1083
Прислал: Whipper (indiespace@narod.ru)




    
0----12--12---0---12---------------------------------------------------------
-0----------------------------------------------------------------------------
-0----------------------------------------------------------------------------
-2----------------------------------------------------------------------------
-2----------------------------7--6----------10---9-------13--12---------------
-0----------------------------------------------------------------------------
  INTRO                                                                       

-0-----0/8---8---8\x\0-----/8-----x--8--\0------------------------------------
-0-----0/8---8---8\x\0-----/8-----x--8--\0------------------------------------
-0-----0/9---9---9\x\0-----/9-----x--9--\0------------------------------------
-2-----2/10--10-10\x\2-----/10----x-10--\2------------------------------------
-2-----2/10--10-10\x\2-----/10----x-10--\2------------------------------------
-0-----0/8---8---8\x\0-----/10----x--8--\0------------------------------------
 destiny destine protect me from above,hold my hand protect me from world     

-0--------0/x/8-------------8\x\0------------0/x/8----------------------------
-0--------0/x/8-------------8\x\0------------0/x/8----------------------------
-0--------0/x/9-------------9\x\0------------0/x/9----------------------------
-2--------2/x/10-----------10\x\2------------2/x/10---------------------------
-2--------2/x/10-----------10\x\2------------2/x/10---------------------------
-0--------0/x/8-------------8\x\0------------0/x/8----------------------------
 ADD                                                                          

------------------------------------------------------------------------------
---11--13-------------11--13---------13-11-13---------------------------------
-----------12-----------------12-----------------12---------------------------
------------------------------------------------------------------------------
------------------------------------------------------------------------------
------------------------------------------------------------------------------
       BRIDGE                                                                 

------------------------------------------------------------------------------
------------------------------------------------------------------------------
--11-12-14-12-11---9----11-12--14--16--16--16---------------------------------
------------------------------------------------------------------------------
--9--10-12-10-9----7----9--10--12--14--14--14---------------------------------
------------------------------------------------------------------------------
    CHORUS                                                                    

------------------------------------------------------------------------------
------------------------------------------------------------------------------
---------------5--5--2--------7----7------------------------------------------
---5--5--2-----5--5--2--------7----7----5-----2-------7-----------------------
---5--5--2-----3--2--0--------5----3----5-----2-------7-----------------------
---3--2--0------------------------------3-----0-------5-----------------------

Продолжаем грести бабос на ботах в Telegram.
Только в этот раз есть вариант автоматизировать это дело, привлекая рефералов. Вы можете заработать если »

------------------------------------------------------------------------------ ------------------------------------------------------------------------------ ---7-----------5---5--2----7---------------7---------------------------------- ---7---5-5--2--5---5--2----7-----5-----2---7---------------------------------- ---5---5-5--2--3---2--0----5-----5-----2---5---------------------------------- -------3-2--0--------------------3-----0-------------------------------------- INTERLUDE ------------------------------------------------------------------------------ ------------------------------------------------------------------------------ ---5-----------------------------------------------------------9--7--5--4----- ---5-------------------------------------------------------------------------- ---3-------------------------------------------------------------------------- --------3--2--0-----0--2--3--5--6---5--3--6--5--3--6--5--3--0----------------- ------------------------------------------------------0----------------------- ------------------------------------------------------0----------------------- ------------------------------------------------------0----------------------- ---5---7---8------7---5---8-----7---5---8----7---5----2----------------------- ------------------------------------------------------2----------------------- ---3---5---6------5---3---6-----5---3---6----5---3----0----------------------- ------------------------------------------------------------------------------ ------------------------------------------------------------------------------ -11--12--14--12-11------9-----11-------12------14-----16--17--19-------------- ------------------------------------------------------------------------------ --9--10--12--10--9------7------9-------10------12-----14--15--17-------------- ------------------------------------------------------------------------------ ------------------------------------------------------------------------------ ------------------------------------------------------------------------------ --19---19--19----17-19-19--17-19-19--17-19-19--17\16\14\12\11\9\7\5\4\-------- ------------------------------------------------------------------------------ --17---17--17----------------------------------------------------------------- ------------------------------------------------------------------------------

искать в аптеке
список лекарств






О сайтеАккордыХит-парадПоискУроки ФорумыИщу песню
ПрограммыСвежачок-сПодпискаСтатьи
Яндекс.Метрика