Табулатура Король и Шут | Невеста Палача гитара табулатуры уроки тексты песен Король и Шут текст lyrics песня аккорды песни ноты нота электрогитара струна  
   А Б В Г Д Е Ж З И К Л М Н О П Р С Т У Ф Х Ч Ш Ы Э Ю Я       Разные песни
1-9 A B C D E F G H I J K L M N O P Q R S T U V W Y Z      Все исполнители in english

    



группа Король и Шут, Табулатура песни Невеста Палача

Продолжаем грести бабос на ботах в Telegram.
Только в этот раз есть вариант автоматизировать это дело, привлекая рефералов. Вы можете заработать если »

Группа: Король и Шут - другие аккорды (277),   о группе (10 статей),   диски (9),   фотографии (68)
Табулатура песни: Невеста Палача
Просмотров: 3628
Подобрал: Андрей (dron82@mail.ru)




    
Intro
e|-----------------------------------------|
B|-----------------------------------------|
G|-----------------------2h4-2h4---2h4-2h4-|
D|---0h2-0h2---0h2-0h2---------------------|
A|-------------0h2-0h2---------------------|
E|-0---------0---------0---------0---------|
Bass
   Em                              C
G|-----------------------------------5-7-5---5-7-5---5-7-5-7-9-7-5-|
D|---2-4-2---2-4-2---2-4-2---2-4-2---------------------------------|
A|---------------------------------3-------3-------3---------------|
E|-0-------0-------0-------0---------------------------------------|
   Em
G|---------------------------------|
D|---2-4-2---2-4-2---2-4-2---2-4-2-|
A|---------------------------------|
E|-0-------0-------0-------0-------|
 \\-----3x---------\\
e|----------------||----------|
B|----------------||----------|
G|-----------7----||-5--4--2--|
D|-2-2-2-----7----||-5--4--2--|
A|-2-2-2-----5----||-3--2--0--|
E|-0-0-0-3-3------||----------|
         Em
Скрыть печаль свою стараясь,
         Em
Палач нахмурил лоб сердито.
Am
Но трактирщик понял -
        Em           H
Сердце палача разбито.
\"Не привык таким я
здесь тебя, приятель, видеть!
Что стряслось, скажи мне!
Клянусь, лишь дьявол мог тебя обидеть!\"
Припев:
Em     C
\"Правосудию я верил,
      Em

Продолжаем грести бабос на ботах в Telegram.
Только в этот раз есть вариант автоматизировать это дело, привлекая рефералов. Вы можете заработать если »

Но теперь в нём нет мне места! C Em H Умерла моя подруга детства! Em C H Палача невеста!\" От меня она скрывала Свои жуткие мученья. Толпа вокруг кричала, Им хотелось развлеченья. Жизнь - игра со смертью! Где святость - там и грех! Бил её я плетью, Хотя считал её я лучше всех! Припев. Solo Em C e|--------------------------------------------| B|--------------------------------------------| G|------------4-------------------4-----------| D|-7--5--4-5-----7--4-5--7--5-------7--5--4-5-| A|-----------------------------7--------------| E|--------------------------------------------| Em H e|--------------------------------------------| B|--------------------------------------------| G|------------4-----------4-------------------| D|-7--5--4-5-----7--5-7-----------------------| A|--------------------------------------------| E|--------------------------------------------| Слово \"ведьма\" вызывало В людях злобу и жестокость! На костре она сгорала, И душа её летела в пропасть. Припев. e|-------------------------------------------------------------------------| B|-------------------------------------------------------------------------| G|-9-------------11-12----------------------7---------------4--------------| D|-9-9-9-9-9-9-9-11-12-12-12-12-12-12-12-12-7-7-7-7-7-7-7-7-4-4-4-4-4-4-4-4| A|-7-7-7-7-7-7-7-9--10-10-10-10-10-10-10-10-5-5-5-5-5-5-5-5-2-2-2-2-2-2-2-2| E|-------------------------------------------------------------------------|

лекарство в аптеке
список лекарств

Синтетический цеолит купить

Производство синтетических веществ. Натуральные и синтетические волосы

sorbis-group.com








О сайтеАккордыХит-парадПоискУроки ФорумыИщу песню
ПрограммыСвежачок-сПодпискаСтатьи
Яндекс.Метрика