“абулатура Ћюбэ | ѕозови мен€ тихо по имени (4) гитара табулатуры уроки тексты песен Ћюбэ текст lyrics песн€ аккорды песни ноты нота электрогитара струна  
   ј Ѕ ¬ ƒ « »   Ћ ћ Ќ ќ ѕ Ў џ Ё ё я       –азные песни
1-9 A B C D E F G H I J K L M N O P Q R S T U V W Y Z      ¬се исполнители

    



группа Ћюбэ, “абулатура песни ѕозови мен€ тихо по имени (4)

√руппа: Ћюбэ - другие аккорды (97),   о группе (1 статей),   фотографии (10)
“абулатура песни: ѕозови мен€ тихо по имени (4)
ѕросмотров: 2290
ѕодобрал: ¬италий (ovi-dau@mail.ru)




    
Ќарод!  то желает иметь вордовскую версию, пишите мне. “ам все подбор представлен гораздо лучше!
¬ступление
                                                   
|-------------------8----|----------------|  
|--------------------8---|----------------|  
|------0-4∕9-9---------9-|----7-9-7^9^7---|  
|--2-4----------10-------|--0)----------7-|  
|-------------10---------|----------------|  
|------------8-----------|----------------|  
                                                                
1 объ€снение:  4∕9 9 . с четвертого лада проскользили (средним пальцем)на дев€тый и потом берем одновременно эту же дев€тку с нотой
на восьмом ладу шестой струны.
2)объ€снение:   0) . ударить и сразу заглушить
  G      Em7    Am            Em
|------|------|------------|-------------|
|-0----|-3----|---1-1-1^0--|---0-0-0-----|
|----0-|----1-|---2-2-----2|---0-0---2^0-|
|---0--|---2--|------------|-------------|
|------|-2----|-0----------|-------------|
|-3----|------|------------|-0-----------|
H7              Em           Em
 уплет  
|-------------|-------------|--------------|
|-------------|-------0-----|-------0------|
|---2-2-2-----|-----0---0---|-----0---0----|
|---1-1---1---|---2-------2-|---2-------2--|
|-2-----------|-------------|--------------|
|-------------|-0-----------|-0------------|
                     позо     ви мен€тихопо
Am                H7           Em           Em
|-------------|-------------|-------------|--------------|
|-------1-----|-------0-----|-------0-----|-------0------|
|-----2---2---|-----2---2---|-----0---0---|-----0---0----|
|---2-------2-|---1-------1-|---2-------2-|---2-------2--|
|-0-----------|-2-----------|-------------|--------------|
|-------------|-------------|-0-----------|-0------------|
  и  ме ниключевойво дой напо и мен€отзоветс€ли сердце без 
Am               H7        Em            Em     
|-------------|-------------|-------------|--------------|
|-------1-----|-------0-----|-------0-----|-------0------|
|-----2---2---|-----2---2---|-----0---0---|-----0---0----|
|---2-------2-|---1-------1-|---2-------2-|---2-------2--|
|-0-----------|-2-----------|-------------|--------------|
|-------------|-------------|-0-----------|-0------------|
 брежное  несказа нное глупое нежное  снова су мерки вход€ть без
Am               D              G            H7 
|-------------|-------------|--------------|--------------|
|-------1-----|-------3-----|-----------0*-|--------------|
|-----2---2---|-----2---2---|-----0.---2*--|-----0--------|
|---2-------2-|---0-------0-|---0-----1*---|-2-4---4--2-2-|
|-0-----------|-0-----------|--------2*----|--------------|
|-------------|-------------|-3------------|-----0--------|
 сонные  сноваза ст€т мнестеклаокон н ее.   тамкиваетсирень
3 объ€снение * - сыграть эти четыре ноты надо быстро или вз€ть их одновременно. 
Am                 
|-------------|-----0-2-0---|---0-2-3-2-0-|--------------|
|-------1^0---|---4-------4-|-4-----------|-0------------|
|-----------2-|-------------|-------------|---0----------| |-0-----------|-------------|-------2-----|--------------| |----2--0-----|-------2-----|-------------|--------------| |-------------|-0-----------|-0-----------|-----2-0------| и смородина позовимен€ ти ха€родина »граем и поем припев: C D G E7 |-------------|-0-----0-----|-----0-------|--------------| |----------0--|-----1---1---|---3---3-----|-0------3-----| |--------0----|---0-------0-|---------2---|-----0------1-| |---2-4-------|-------------|-0-----------|---0------2---| |-------------|-3-----------|-------------|--------2-----| |-------------|-------------|-------------|-3------------| позо виме н€ наза кате дн € Am Em H7 |-------------|-------------|---------------------| |---1-1-1^0---|---0-0-0-----|---------------------| |---2-2-----2-|---0-0---2^0-|-----------2-2-2-----| |-------------|-------------|-----------1-1---1---| |-0-----------|-------------|---------2-----------| |-------------|-0-----------|-------------------0-| позовимен€ грустьпечаль мо€ позовимен€ с D, G, E7 |-----------0-|-------------|---8-8-8-7(/)5-|---7-7-7-5(/)3-| |---------0---|-------------|---5-5-5-5---5-|---8-8-8-7(/)5-| |-------0-----|-------------|---------------|---------------| |---2-4-------|-------------|---------------|---------------| |-----------3-|----повтор---|-0-------------|---------------| |-------------|-------------|---------------|-0-------------| по зовиме н€ .на закате дн€..позовимен€ грустьпечальмо€ ( / ) . это слайды, другими словами нужно проскользить с ноты на ноту как в первом случае —кольжение вз€то в скобки, так как можно использовать этот прием, а можно и опустить, но с этими слайдами красивее, хот€ в то же врем€ и труднее. Em |---5-5-5-----|-------------|-------------|--------------| |---4-4-4-4---|-------0-----|-------0-----|--------------| |-------------|-----0---0---|-----0---0---|--------------| |-------------|---2-------2-|---2-------2-|--------------| |-2-----------|-------------|-------------|--------------| |-------------|-0-----------|-0-----------|--------------| позовимен€  ”ѕЋ≈“ Ш2 «наю сбудетс€ наше свидание, «ат€нулось с тобой расставание. —иний мес€ц за городом пр€четс€, Ќе тоскуетс€ мне и не плачетс€...  олокольчик ли, дальнее эхо ли, “олько мимо с тобой мы проехали. Ќапылили кругом, накопытили, ƒаже толком дороги не видели. ѕрипев.  ”ѕЋ≈“ Ш3 ѕозови мен€ тихо по имени,  лючевой водой напои мен€. «наю сбудетс€ наше свидание, я вернусь, € сдержу обещание...








ќ сайте Х јккорды Х ’ит-парад Х ѕоиск Х ”роки Х ‘орумы Х »щу песню
ѕрограммы Х —вежачок-с Х ѕодписка Х —татьи
яндекс.ћетрика