Аккорды H.I.M. | Heartache Every Moment гитара табулатуры уроки тексты песен H.I.M. текст lyrics песня аккорды песни ноты нота электрогитара струна  
   А Б В Г Д Е Ж З И К Л М Н О П Р С Т У Ф Х Ч Ш Ы Э Ю Я       Разные песни
1-9 A B C D E F G H I J K L M N O P Q R S T U V W Y Z      Все исполнители in english

    



группа H.I.M., Аккорды песни Heartache Every Moment

Группа: H.I.M. - другие аккорды (273),   о группе (2 статей),   диски (5),   фотографии (82)
Аккорды песни: Heartache Every Moment
Просмотров: 2411
Подобрал: Артём (timon14@inbox.ru)




    
H.I.M. "Heartache Every Moment"
"Deep Shadows & Brilliant Highlights"
-----------------------------------------
Вступление:
1|--3---3-----------3---3------------|--3---3-----------3---3----------|
2|----------6---6-----------6---6----|----------6---6-----------4---6--|
3|----5---5---5---5---5---5---5---5--|----5---5---5---5---5---5--------|
4|-----------------------------------|---------------------------------|
5|--3--------------------------------|--3------------------------------|
6|-----------------------------------|---------------------------------|
    соло: под аккорды D#/A#/Cm.
    D#   A# A# Cm
1|------------------|-----------------------|-----|------------------|-3--------|
2|--8-8--6--3--4-4--|--8-8--6------------4--|-4-6-|--8-8--6--3--4-4--|---6-4-6--|
3|------------------|-----------7------5----|-----|------------------|----------|
4|------------------|---------8------5------|-----|------------------|----------|
5|--6-------1--3-3--|--6-----------3--------|-----|--6-------1--3-3--|----------|
6|-------6----------|-------6---------------|-----|-------6----------|-------6--|
Fm   G#        C#           Fm G#   C#
From lashes to ashes - from Lust to Dust.
Fm      G#       C#          D#
In your sweetest torment I'm lost.
   D#
...And no heaven can help us.
Fm     G#          C#
Ready, willing and able.
Fm G#      C#
To lose it all.
Fm    G#      C#           D#

Продолжаем грести бабос на ботах в Telegram.
Только в этот раз есть вариант автоматизировать это дело, привлекая рефералов. Вы можете заработать если »

For a kiss so fatal and so worn. Chorus: G# A# D# A# Cm Oh, it's heartache every moment! D# A# Cm From the start till the End. D# A# Cm A# It's heartache every moment, with you. G# A# D# A# Cm Deeper into our heavenly Suffering. D# A# Cm Our fragile souls are falling. D# A# Cm A# Cm. It's heartache every moment, Babe with you! And we sense the danger But don't wanna give up. Cause there's no smile of an angel without the wrath of God. Chorus: Соло. A# G# A# From lashes to ashes - from Lust to Dust. Cm A# In your sweetest torment I am lost. G# A# And we sense the danger but don't wanna give up. Chorus:








О сайтеАккордыХит-парадПоискУроки ФорумыИщу песню
ПрограммыСвежачок-сПодпискаСтатьи
Яндекс.Метрика