Табулатура Red Hot Chili Peppers | Pea гитара табулатуры уроки тексты песен Red Hot Chili Peppers текст lyrics песня аккорды песни ноты нота электрогитара струна  
   А Б В Г Д Е Ж З И К Л М Н О П Р С Т У Ф Х Ч Ш Ы Э Ю Я       Разные песни
1-9 A B C D E F G H I J K L M N O P Q R S T U V W Y Z      Все исполнители in english

    



группа Red Hot Chili Peppers, Табулатура песни Pea

Группа: Red Hot Chili Peppers - другие аккорды (395),   о группе (3 статей),   диски (15),   фотографии (113)
Табулатура песни: Pea
Просмотров: 2578
Прислал: Свой Перец (obodov@rambler.ru)




    
Pea by Red Hot Chili Peppers         
|------------------|------------------|------------------|------------------|
|--3-----3-3-----3-|------------------|------------------|------------------|
|------------------|--4-----4-4-----4-|--3-----3-3-----3-|--1-----1-1-----1-|
          I\'m a little pea                       I love the sky and the trees
|------------------|------------------|------------------|------------------|
|--3-----3-3-----3-|------------------|------------------|------------------|
|------------------|--4-----4-4-----4-|--3-----3-3-----3-|--1-----1-1-----1-|
          I\'m a teeny tiny          little ant             Checking out this 
|------------------|------------------|------------------|------------------|
|--3-----3-3-----3-|------------------|------------------|------------------|
|------------------|--4-----4-4-----4-|--3-----3-3-----3-|--1-----1-1-----1-|
that           I am   nothing Ah         Ah    so you have  nothing to hide
|------------------|------------------|------------------|------------------|
|--3-----3-3-----3-|------------------|------------------|------------------|
|------------------|--4-----4-4-----4-|--3-----3-3-----3-|--1-----1-1-----1-|
               and I\'m a pacifist                So I can fuck your shit up
|------------------|------------------|------------------|------------------|
|3/5-----5-5-----5-|--8-----8-8-----8-|--3-----3-3-----3-|--3-3---33--33-023|
|------------------|------------------|------------------|------------------|
           Oh Yeah                I\'m small
|------------------|------------------|------------------|------------------|

Продолжаем грести бабос на ботах в Telegram.
Только в этот раз есть вариант автоматизировать это дело, привлекая рефералов. Вы можете заработать если »

|--5-----5-5-----5-|--8-----8-8-----8-|--3-----3-3-----3-|--3-3---3---3---3-| |------------------|------------------|------------------|------------------| Oh Yeah Ah I\'m small |------------------|------------------|------------------|------------------| |--2-----2-2-----2-|----------0---3---|--2-----2-2-----2-|----------0---5---| |------------------|--3-----3---------|------------------|--3-----3---------| Fuck you asshole You homophonic redneck dick |------------------|------------------|------------------|------------------| |--2-----2-2-----2-|----------0---3---|--2-----2-2-----2-|--0-----0-3-3---2-| |------------------|--3-----3---------|------------------|------------------| You\'re big and touch and macho you can kick my ass So fucking what |------------------|------------------|------------------|------------------| |-(2)2-2--22-2---2-|--0-----3-3-3---2-|--2-2-2-2-2-2-2-2-|--0-0-0-0-3-3-3-3-| |------------------|------------------|------------------|------------------| So fucking what |------------------|------------------|------------------|| |--2---2-2-2-2-2-2-|--0-0-0-0-3-3-3-3-|--2---------------|| |------------------|------------------|------------000---|| So fucking what








О сайтеАккордыХит-парадПоискУроки ФорумыИщу песню
ПрограммыСвежачок-сПодпискаСтатьи
Яндекс.Метрика