Табулатура Metallica | Fade To Black  (2) гитара табулатуры уроки тексты песен Metallica текст lyrics песня аккорды песни ноты нота электрогитара струна  
   А Б В Г Д Е Ж З И К Л М Н О П Р С Т У Ф Х Ч Ш Ы Э Ю Я       Разные песни
1-9 A B C D E F G H I J K L M N O P Q R S T U V W Y Z      Все исполнители in english

    



группа Metallica, Табулатура песни Fade To Black (2)

Группа: Metallica - другие аккорды (225),   о группе (32 статей),   диски (11),   фотографии (49)
Табулатура песни: Fade To Black (2)
Просмотров: 4816
Подобрал: SLANG (gallosdima@yahoo.com)




    
================================================================
 Обозначения:
 5h7     - хаммер                ^
 7p5     - пулл                --4--   - бенд
 5/7, /7 - слайд вверх
 75, 5 - слайд вниз            ^
                               --4--   - бенд и возврат
 --4~~-  - вибрато
                                 ^~~
                               --4--   - бенд->возврат->вибрато
================================================================
1)
e--------------------------------------------------------------------
B--------------------------------------------------------------------
G------0----------------0----------------0----------------2----------
D----4---4---4---4----4---4---4---4----4---4---4---4----2---2---2---2
A--2-------2---5----0-------0---5----2-------2---5----4-------4---0--
E--------------------------------------------------------------------
intro
2)
e--------------------------------------------------
B--------------------------------------------0h1-3-
G--------------------------------1--------1--------
D-----3--0--3--------2--------2--------2-----------
A-----------------2-----2--2--------2--------------
E--1-----------4-----------------------------------
after the intro before the main verse riff
3)
e--------------0-----------------0---------3--------3-----------0-----------
B--0-h1----------------1-1--1------------0-3--3-----------------0------0-1/3
G--2-----2---------0h2---0-----------0h2---0------------0h2p0-0-0------0-2/4
D--2--------2----2-------2-----2---2-------0-----0----0---------2--2--------
A--0---------------------3-----------------2-------------------------2------
E------------------------------------------3--------------------------------
main verse
4a)
D-[-------]-2--2-2-----------5--5-5-----------2--2-2--7--9--9-9-
A-[-------]-0--0-0--------5--3--3-3--------5--0--0-0--5--7--7-7-
E-[0-0-0-0]---------0-0-3------------0-0-3----------------------
pm........          .....            .......
4b)
D-------5-5-2--2-2-----------5--5-5-----------2--2-2-----------
A-------3-2-0--0-0--------5--3--3-3--------5--0--0-0---5-4--2--
E---0-0-------------0-0-3------------0-0-3-------------3-2--0--
    .......         .....            .......
Crunch riff
5)
G--7/9--9--9--7/9--9/12-11--7--7-7-------------------------------
D--7/9--9--9--7/9--9/12-11--7--7-7--9-9-9--7-7-7--5-5-5--4-4-4-5-
A--5/7--7--7--5/7--7/10-9---5--5-5-------------------------------
E-(0)------------------------------------------------------------
   ^ after E5 in 4b
6)
D----------9--9---------12-11--------7-------------------------------
A----------7--7---------10-9---------5--9-9-9--7-7-7--5-5-5--4-4-4-5-
E--0-0-0-0------0-0-0-0------0-0-0-0---------------------------------
 pm.......      .......      .......
7a) Gtr1
G-----------------------------------------------------------------------2----------
D-----4--5--4--2----------4--5--4--2----------4--5--4--2----------4--5-----5-4-2-4-
Узнай ВСЕ о своем друге в ВК или FB
A--5-------------5-4-0-4-------------5-4-0-2-------------5-4-0-4------------------- E---------------------------------------------------------------------------------- closing riff 7b) Gtr2 G---------------------------------------------------------------------------------- D----/4--2---------------/4--2---------------/4--2---------------/4--2------------- A--2--------5--4-2--------------5--4-2--------------5--4-2--------------5--4-2----- E------------------5-2-5---------------5-2-3---------------5-2-5---------------5-2- closing riff -------------------------------------------------------- intro solo 1) e----------------------------------- B------7----7h8-10---8-10/12-10-8-10 G----7------------------------------ D//9-----9~------------------------- A----------------------------------- E----------------------------------- 2) e--------------------------------------------------------- B-12p10p8-7-7h8-p-7---7------------------------8-7~-7/10~- G-------------------9---9-7-----------76~-7p6------------ D----------------------------7--9-9~~--------------------- A--------------------------------------------------------- E--------------------------------------------------------- 3) ^~~ e-----14-19p14-------15p14----------------------------------- B--15----------15----------15----17-15-14-------------------- G-----------------16----------16----------16-14---14h16------ D-------------------------------------------------------14~~- 4) e-----------------------------------------19-17-15~~- B--------------14-15-14h15p14----14-15-14------------ G--------14-16----------------16--------------------- D--14h16--------------------------------------------- 5) e--15-17-14--------14-15-14--------14-15-14----17-15-14--- B-----------15--------------15--------------15------------ G--------------16~-------------14~------------------------ D--------------------------------------------------------- 6) e----------------------------------12-13-15-13h15p13-17~~~ B-------------------------12-13-15------------------------ G-------------------12-14--------------------------------- D----------12-14-15--------------------------------------- A-12-14-15------------------------------------------------ Middle solo: 1) Two guitars: e--------------------------------------- B--10--10-12-13--15-13-12--------------- G--9---9--11-12--14-12-11-12--12/14-9~-- D-------------------------12--12/14-9~-- 2) ^ ^ ^ ^ ^ e--------------------------------------------------------- B-----------------------------12-13--15-13--15-15-15-15--- G--9/(11)-11/(12)-12/(14)--14-11-12--14-12--14-14-14-14--- D--9/(11)-11/(12)-12/(14)--14----------------------------- если песня понравилась пришлите ваше мнение на gallosdima@yahoo.com

найти лекарство
список лекарств






О сайтеАккордыХит-парадПоискУроки ФорумыИщу песню
ПрограммыСвежачок-сПодпискаСтатьи
Яндекс.Метрика