Табулатура Red Hot Chili Peppers | Battle Ship гитара табулатуры уроки тексты песен Red Hot Chili Peppers текст lyrics песня аккорды песни ноты нота электрогитара струна  
   А Б В Г Д Е Ж З И К Л М Н О П Р С Т У Ф Х Ч Ш Ы Э Ю Я       Разные песни
1-9 A B C D E F G H I J K L M N O P Q R S T U V W Y Z      Все исполнители in english

    



группа Red Hot Chili Peppers, Табулатура песни Battle Ship

Продолжаем грести бабос на ботах в Telegram.
Только в этот раз есть вариант автоматизировать это дело, привлекая рефералов. Вы можете заработать если »

Группа: Red Hot Chili Peppers - другие аккорды (395),   о группе (3 статей),   диски (15),   фотографии (113)
Табулатура песни: Battle Ship
Просмотров: 2334
Подобрал: Whipper (indiespace@narod.ru)




    
Verse:
       E5              D5                        B5  
-||-------------------------|-------------------------||-
-||-------------------------|-------------------------||-
-||-*-----------------------|-----------------------*-||-
-||-*--9----9--9--9----7----|----7----7--7--7----4--*-||-
-||----7----7--7--7----5----|----5----5--5--5----2----||-
-||-------------------------|-------------------------||- x2
Chorus:
                                                                              
       E9                          E9
-||----7--7--7---7-7--x-7-7---|----7--7--7---7--7---7--7----||-
-||----7--7--7---7-7--x-7-7---|----7--7--7---7--7---7--7----||-
-||----7--7--7---7-7--x-7-7---|----7--7--7---7--7---7--7----||-
-||---------------------------|-----------------------------||-

Продолжаем грести бабос на ботах в Telegram.
Только в этот раз есть вариант автоматизировать это дело, привлекая рефералов. Вы можете заработать если »

-||---------------------------|-----------------------------||- -||---------------------------|-----------------------------||- Bass Verse Riff: G-||--------------------------------|--------------------------------||- D-||--------------------------------|--------------------------------||- A-||--------------------------------|--------------------------------||- E-||----7--7--5-5--7---x-7--5--7----|----7--7--5-5--7---x-7--5--7----||- Bass Chorus Riff: G-||-----------------------------|-------------------------------||- D-||-----------------------------|-------------------------------||- A-||----7--7--7------------------|----7--7--7--------------------||- E-||---------------3-3----5-5----|---------------3--3----5--5----||-

лекарство в аптеке
список лекарств






О сайтеАккордыХит-парадПоискУроки ФорумыИщу песню
ПрограммыСвежачок-сПодпискаСтатьи
Яндекс.Метрика